Red Hot Chili Peppers

home > Red Hot Chili Pepp...

Your Eyes Girl Bass Tab

Red Hot Chili Peppers

Difficulty: nolevelnolevel

by fernsantana

tuner correct add songbook print version text version save to e-mail
chordsukulelecavacokeyboardtabbassdrumsharmonicsflute Guitar Pro
chords

Your Eyes Girl

	  Intro: 
              (Rest x2) 
G |---------------------------------| 
D |---------------------------------| 
A |---------------------------------| 
E |-r-------------------------------| 
    1   &   2   &   3   &   4   & 

G |-----------------------------7---|---------------------------------| 
D |-5---5-5-5---7-8-5---5-5-5-----8-|-5---5-5-5---7-8-5---5-5-5---5-5-| 
A |---------------------------------|---------------------------------| 
E |---------------------------------|---------------------------------| 
    1   &   2   &   3   &   4   &     1   &   2   &   3   &   4   & 

G |---------------------------------|-----------------5---------------| 
D |-5---5-5-5---5-5-----------------|-5---5-5-5---7-8---8-7---8-7-----| 
A |-----------------6---6---6---6---|-----------------------------5---| 
E |---------------------------------|---------------------------------| 
    1   &   2   &   3   &   4   &     1   &   2   &   3   &   4   & 


verse 1: 

G |-----------------------------7---|---------------------------------| 
D |-5---5-5-5---7-8-5---5-5-5-----8-|-5---5-5-5---7-8-5---5-5-5---8-7-| 
A |---------------------------------|---------------------------------| 
E |---------------------------------|---------------------------------| 
    1   &   2   &   3   &   4   &     1   &   2   &   3   &   4   & 

                                                          a 
G |---------------------------------|-----------------5---5h7-r-5-8-5---| 
D |-5---5-5-5---5-5-----------------|-5---5-5-5---7-8---8-------------8-| 
A |-----------------6---6---6---6---|-----------------------------------| 
E |---------------------------------|-----------------------------------| 
    1   &   2   &   3   &   4   &     1   &   2   &   3    &    4   & 


G |-------------7-------------------|---------7-------------------7---| 
D |-5---5-5-5-----8-5---5-5-5---7-8-|-5---5-5---8-7-8-5---5-5-5-----8-| 
A |---------------------------------|---------------------------------| 
E |---------------------------------|---------------------------------| 
    1   &   2   &   3   &   4   &     1   &   2   &   3   &   4   & 

                                                      a         a 
G |---------------------------------|-------------5---5h7-7-5---5h6-5---5-| 
D |-5---5-5-8-7-8-7-------------8-7-|-5---5-5-5-8---8---------8-------8---| 
A |-----------------6---6---6-8-----|-------------------------------------| 
E |---------------------------------|-------------------------------------| 
    1   &   2   &   3   &   4   &     1   &   2   &    3   &    4   & 


G |-------------------------------7-|---------7-----------------------| 
D |-5---5-5-5---7-8-5---5-5-5-7-8---|-5---5-5---8-7-8-5---5-5-------8-| 
A |---------------------------------|-------------------------8-8-5---| 
E |---------------------------------|---------------------------------| 
    1   &   2   &   3   &   4   &     1   &   2   &   3   &   4   & 

G |---------------------------------|---------------------------------| 
D |-5---5-5-5---5-5-----------------|-5---5-5-5-5-5-5-5-5-5-5-5-5-5-0-| 
A |-----------------6---6---6---6---|---------------------------------| 
E |---------------------------------|---------------------------------| 
    1   &   2   &   3   &   4   &     1   &   2   &   3   &   4   & 


Chorus 1: 

G |-------------------------6-------|---------------------------------| 
D |-------3---3-4-4-4-6-6-6-----6---|-5---5-0-5---0-5---0-5---5-5-0---| 
A |-4---4---------------------------|---------------------------------| 
E |---------------------------------|---------------------------------| 
    1   &   2   &   3   &   4   &     1   &   2   &   3   &   4   & 

G |---------------------------------|---------------------------------| 
D |---------3-3-3-4-4-4-6-\---------|-5---5-5-5-5-0-5---0-5-7-5-0-5-0-| 
A |-4---4-4-----------------1-----/-|---------------------------------| 
E |---------------------------------|---------------------------------| 
    1   &   2   &   3   &   4   &     1   &   2   &   3   &   4   & 

G |-------------------------6-------|---------------------------------| 
D |-------3---3-4-4-4-6-6-6-----6---|-5---5-0-5---7-8-9-9-7---5---7-5-| 
A |-4---4---------------------------|---------------------------------| 
E |---------------------------------|---------------------------------| 
    1   &   2   &   3   &   4   &     1   &   2   &   3   &   4   & 

                                                   ( x3 ) 
G |---------------------------------||---------------------------------||---------------------------------| 
D |---------------------------------||---------------------------------||---------------------------------| 
A |-4---4-4-4---4-4-4-4-4-----------||-----------------5---------------||---------------------------------| 
E |-------------------------6---\---||-3-------------------------------||-3-------------------------------| 
    1   &   2   &   3   &   4   &      1   &   2   &   3   &   4   &      1   &   2   &   3   &   4   & 


verse 2: 

G |---------------------------------|-------------7-------------------| 
D |-5---5-5-5---7-8-5---5-5-5-\-8-7-|-5---5-5-5-----8-5---5-5-7-8-7---| 
A |---------------------------------|---------------------------------| 
E |---------------------------------|---------------------------------| 
    1   &   2   &   3   &   4   &     1   &   2   &   3   &   4   & 

G |---------------------------------|---------------------------------| 
D |-5---5-5-7-8-7-8---------7-8-7-8-|-5---5-5-5-\---------------------| 
A |-----------------6---6-----------|-------------1-3-4-3-1-3-1---1-/-| 
E |---------------------------------|---------------------------3-----| 
    1   &   2   &   3   &   4   &     1   &   2   &   3   &   4   & 

G |------------------------/7-7-7-7-|---------------------------------| 
D |-5---5-5-5---7-8-5---5-5---------|-5---5-5-5---7-8-7-8-7-8-7-8-7-8-| 
A |---------------------------------|---------------------------------| 
E |---------------------------------|---------------------------------| 
    1   &   2   &   3   &   4   &     1   &   2   &   3   &   4   & 

G |---------------------------------|---------------------------------| 
D |-5---5-5-5---5-5-----------------|---------------------------------| 
A |-----------------6---6---6---6---|-------------3-4-5-4-3---3-------| 
E |---------------------------------|-3---3-0-3-6-----------6---6-----| 
    1   &   2   &   3   &   4   &     1   &   2   &   3   &   4   & 


Chorus 2: 

G |-------------------------6-------|---------------------------------| 
D |---------3---3-4---4-6-----3-4-6-|-5---5-0-5---0-5---0-5-5-5-0-5-0-| 
A |-4---4-4-------------------------|---------------------------------| 
E |---------------------------------|---------------------------------| 
    1   &   2   &   3   &   4   &     1   &   2   &   3   &   4   & 

G |---------------------------------|-------------------3---4---3-----| 
D |-------3---3-4---4-6-6-\---------|-5-5-5-5-5-5-5-5-5-----------5-0-| 
A |-4---4-------------------1---1-/-|---------------------------------| 
E |---------------------------------|---------------------------------| 
    1   &   2   &   3   &   4   &     1   &   2   &   3   &   4   & 

G |---------------------------------|---------------------------------| 
D |---------3-3-3-4-4-4-6-6-3-3-6-6-|-5---5-0-5---5-0-5-5-0-5---0-5-0-| 
A |-4---4-4-------------------------|---------------------------------| 
E |---------------------------------|---------------------------------| 
    1   &   2   &   3   &   4   &     1   &   2   &   3   &   4   & 

                                                   ( x3 ) 
G |---------------------------------||---------------------------------||---------------------------------| 
D |---------------6---6-------------||---------------------------------||---------------------------------| 
A |-4-4-4-4---4-4-------8-\-1-------||-----------------5---------------||---------------------------------| 
E |---------------------------------||-3-------------------------------||-3-------------------------------| 
    1   &   2   &   3   &   4   &      1   &   2   &   3   &   4   &      1   &   2   &   3   &   4   & 


INTERLUDE: 

G |---------------------------------|---5-6-7-6-7-8-7-8-9-8-9-10-9-10-11-| 
D |-5---5-5-5---7-8-5---5-5-5-5-7-8-|-5----------------------------------| 
A |---------------------------------|------------------------------------| 
E |---------------------------------|------------------------------------| 
    1   &   2   &   3   &   4   &     1   &   2   &   3   &   4    & 

                                                          ^ . . . 
G |---------------------------------|---------------5-5-5-5-5-5-5-5-5-| 
D |-5---5-5-7-8-7-5-------------8-7-|-5---5-5-5---5-------------------| 
A |-----------------6---6---6-8-----|---------------------------------| 
E |---------------------------------|---------------------------------| 
    1   &   2   &   3   &   4   &     1   &   2   &   3   &   4   & 


G |-----------------------------7---|---------5-7---------------------| 
D |-5---5-5-5---7-8-5---5-5-5-----8-|-5---5-5-----8-7-5---5-5-7-8-7-8-| 
A |---------------------------------|---------------------------------| 
E |---------------------------------|---------------------------------| 
    1   &   2   &   3   &   4   &     1   &   2   &   3   &   4   & 

G |---------------------------------|---------------------------------| 
D |-5---5-5-5---5-5-----------------|-5---5-----------------------3---| 
A |-----------------6---6---6---6---|-------------------3---4---5-----| 
E |---------------------------------|---------3-3---6-----------------| 
    1   &   2   &   3   &   4   &     1   &   2   &   3   &   4   & 


G |--------------------------12--------|---------------------------------| 
D |-5---5-5-5---7-8-5---5/12----12-8-8-|-5---5-5-7-8-7-8-5---5-5-5-5---8-| 
A |------------------------------------|-----------------------------8---| 
E |------------------------------------|---------------------------------| 
    1   &   2   &   3   &    4     &     1   &   2   &   3   &   4   & 

G |---------------------------------|---------------------------------| 
D |-5---5---5-5-5-5-----------------|-5---5-5-5-5-5-5-5-5-5-5-5-5-5-0-| 
A |-----------------6---6---6---6---|---------------------------------| 
E |---------------------------------|---------------------------------| 
    1   &   2   &   3   &   4   &     1   &   2   &   3   &   4   & 


OUT-Chorus: 

G |-------------------------6---8-\-|---------------------------------| 
D |-------3---3-4-----6-6-6---------|-5---5-5-5---0-5---0-5-0-5-0-5-0-| 
A |-4-4-4---------------------------|---------------------------------| 
E |---------------------------------|---------------------------------| 
    1   &   2   &   3   &   4   &     1   &   2   &   3   &   4   & 

G |---------------------------------|---------------------------------| 
D |-------3---3-4-4-4-6-6-6---------|-5---5---5-5-5-5-5-8---9---7-5-\-| 
A |-4-4-4---------------------------|---------------------------------| 
E |-------------------------6-------|---------------------------------| 
    1   &   2   &   3   &   4   &     1   &   2   &   3   &   4   & 

G |---------------6----6----6-------|---------------------------------| 
D |---------3-3-6----6--------6-3-4-|-5-5---5---5-5-5---0-5-0-5-0-5-0-| 
A |-4---4-4-------------------------|---------------------------------| 
E |---------------------------------|---------------------------------| 
    1   &   2   &   3   &   4   &     1   &   2   &   3   &   4   & 

                                                  ( x2 ) 
G |---------------------------------||---------------------------------| 
D |---------6-6-6-3---3-------------||---------------------------------| 
A |-4-4-4-4-------------4-\-1-------||-----------------5---------------| 
E |---------------------------------||-3-------------------------------| 
    1   &   2   &   3   &   4   &      1   &   2   &   3   &   4   & 

                                     (Let ring) 
G |---------------------------------|---------------------------------| 
D |---------------------------------|---------------------------------| 
A |-----------------5-----------/---|-10------------------------------| 
E |-3-------------------------------|---------------------------------| 
    1   &   2   &   3   &   4   &     1   &   2   &   3   &   4   & 

LEGEND: 
r = rest 
/ = slide up 
\ = slide down 
^... = 1/2 bend & hold (appears above bar) 
a = acciaccatura (appears above bar) 
	  

there isn't a video lesson for this song

request
Search Paypal
auto scroll beats size up size down change color hide chords drawings
tab show chords e-chords YouTube Clip e-chords hide all tabs e-chords go to top tab