Red Hot Chili Peppers

home > Red Hot Chili Pepp...

Your Eyes Girl Tab

Red Hot Chili Peppers

Difficulty: nolevelnolevel

by aleffederico

tuner correct add songbook print version text version save to e-mail
chordsukulelecavacokeyboardtabbassdrumsharmonicsflute Guitar Pro
chords

Your Eyes Girl

  		
Intro: 

Gtr.1 

e|---------------------------------------------------------| 
B|--8hb~-8hb~-8hb~-8hb~-8hb~-8hb~-8hb~-8hb~-8hb~-8hb~-8hb~-| 
G|---------------------------------------------------------| 
D|---------------------------------------------------------| 
A|---------------------------------------------------------| 
E|---------------------------------------------------------| 


e|-----------------------------------------------------------| 
B|--8hb~-8hb~-8hb-11hb~-11hb~-11hb~-8hb~-8hb~-8hb~-8hb~-8hb~-| 
G|-----------------------------------------------------------| 
D|-----------------------------------------------------------| 
A|-----------------------------------------------------------| 
E|-----------------------------------------------------------| 

Gtr.3 

e|----------------------------------------------------------------------| 
B|----------------------------------------------------------------------| 
G|----------------------------------------------------------------------| 
D|-5---5--5---5--5---5--5---5--5---5--5--5-8--8--8--5--5---5--5---5--5--| 
A|-5---5--5---5--5---5--5---5--5---5--5--5-8--8--8--5--5---5--5---5--5--| 
E|-3---3--3---3--3---3--3---3--3---3--3--3-6--6--6--3--3---3--3---3--3--| 

Verse: 

Gtr.1(play silently,in the background) 

e|---------------------------------------------------------| 
B|--8hb~-8hb~-8hb~-8hb~-8hb~-8hb~-8hb~-8hb~-8hb~-8hb~-8hb~-| 
G|---------------------------------------------------------| 
D|---------------------------------------------------------| 
A|---------------------------------------------------------| 
E|---------------------------------------------------------| 


e|-----------------------------------------------------------| 
B|--8hb~-8hb~-8hb-11hb~-11hb~-11hb~-8hb~-8hb~-8hb~-8hb~-8hb~-| 
G|-----------------------------------------------------------| 
D|-----------------------------------------------------------| 
A|-----------------------------------------------------------| 
E|-----------------------------------------------------------| 

Gtr.2(it plays just before Gtr.1 plays 11hb) 

e|--------------------------------------------------------| 
B|-13br-13hbp11~-11~-11-13-8hb~-8hb~-8hb~-8hb~-8hb~--11hb-| 
G|--------------------------------------------------------| 
D|--------------------------------------------------------| 
A|--------------------------------------------------------| 
E|--------------------------------------------------------| 

Gtr.3 

e|----------------------------------------------------------------------| 
B|----------------------------------------------------------------------| 
G|----------------------------------------------------------------------| 
D|-5---5--5---5--5---5--5---5--5---5--5--5-8--8--8--5--5---5--5---5--5--| 
A|-5---5--5---5--5---5--5---5--5---5--5--5-8--8--8--5--5---5--5---5--5--| 
E|-3---3--3---3--3---3--3---3--3---3--3--3-6--6--6--3--3---3--3---3--3--| 

Then: 

Gtr.1(play silently,in the background) 

e|---------------------------------------------------------| 
B|--8hb~-8hb~-8hb~-8hb~-8hb~-8hb~-8hb~-8hb~-8hb~-8hb~-8hb~-| 
G|---------------------------------------------------------| 
D|---------------------------------------------------------| 
A|---------------------------------------------------------| 
E|---------------------------------------------------------| 


e|-----------------------------------------------------------| 
B|--8hb~-8hb~-8hb-11hb~-11hb~-11hb~-8hb~-8hb~-8hb~-8hb~-8hb~-| 
G|-----------------------------------------------------------| 
D|-----------------------------------------------------------| 
A|-----------------------------------------------------------| 
E|-----------------------------------------------------------| 

Gtr.2 

|---------------13---------------------------------------| 
|-8hb~-8hb~8hb~----8hb~-8hb~8hb~---8hb~-8hb~---8hb~-8hb~-| 
|--------------------------------8-----------7-----------| 
|--------------------------------------------------------| 
|--------------------------------------------------------| 
|--------------------------------------------------------| 

|-----------------------------------------------------------------------| 
|-8hb~-8hb~-8hb~-13br-13hbp11~-11~-11-13-8hb~-8hb~-8hb~-8hb~-8hb~--11hb-| 
|-----------------------------------------------------------------------| 
|-----------------------------------------------------------------------| 
|-----------------------------------------------------------------------| 
|-----------------------------------------------------------------------| 

Gtr.3 

|----------------------------------------------------------------------| 
|----------------------------------------------------------------------| 
|----------------------------------------------------------------------| 
|-5---5--5---5--5---5--5---5--5---5--5--5-8--8--8--5--5---5--5---5--5--| 
|-5---5--5---5--5---5--5---5--5---5--5--5-8--8--8--5--5---5--5---5--5--| 
|-3---3--3---3--3---3--3---3--3---3--3--3-6--6--6--3--3---3--3---3--3--| 


Gtr.1 

|---------------------------------------------------------| 
|--8hb~-8hb~-8hb~-8hb~-8hb~-8hb~-8hb~-8hb~-8hb~-8hb~-8hb~-| 
|---------------------------------------------------------| 
|---------------------------------------------------------| 
|---------------------------------------------------------| 
|---------------------------------------------------------| 


|-----------------------------------------------------------| 
|--8hb~-8hb~-8hb-11hb~-11hb~-11hb~-8hb~-8hb~-8hb~-8hb~-8hb~-| 
|-----------------------------------------------------------| 
|-----------------------------------------------------------| 
|-----------------------------------------------------------| 
|-----------------------------------------------------------| 

Gtr.2 

|---------------13-----------------------------------------------| 
|-8hb~-8hb~8hb~----8hb~-8hb~8hb~-------8hb~-8hb~-------8hb~-8hb~-| 
|--------------------------------8p7h8-----------7p5h7-----------| 
|----------------------------------------------------------------| 
|----------------------------------------------------------------| 
|----------------------------------------------------------------| 

|-----------------------------------------------------------------------| 
|-8hb~-8hb~-8hb~-13br-13hbp11~-11~-11-13-8hb~-8hb~-8hb~-8hb~-8hb~--11hb-| 
|-----------------------------------------------------------------------| 
|-----------------------------------------------------------------------| 
|-----------------------------------------------------------------------| 
|-----------------------------------------------------------------------| 

Gtr.3 

|----------------------------------------------------------------------| 
|----------------------------------------------------------------------| 
|----------------------------------------------------------------------| 
|-5---5--5---5--5---5--5---5--5---5--5--5-8--8--8--5--5---5--5---5--5--| 
|-5---5--5---5--5---5--5---5--5---5--5--5-8--8--8--5--5---5--5---5--5--| 
|-3---3--3---3--3---3--3---3--3---3--3--3-6--6--6--3--3---3--3---3--3--| 

Pre-chorus: 

Gtr.1 

|------------------------------------------------| 
|-8brbrbrbr8brbrbrbr-6b--6b-6b-6b-6b-6b-6b-6b-6b-| 
|------------------------------------------------|x3 
|------------------------------------------------| 
|------------------------------------------------| 
|------------------------------------------------| 

|------------------------| 
|-8brbrbrbr8brbrbrbr-6b~-| 
|------------------------| 
|------------------------| 
|------------------------| 
|------------------------| 

Gtr.2 

|------------------------------------------------| 
|-8brbrbrbr8brbrbrbr-6b--6b-6b-6b-6b-6b-6b-6b-6b-| 
|------------------------------------------------|x3 
|------------------------------------------------| 
|------------------------------------------------| 
|------------------------------------------------| 

|------------------------| 
|-8brbrbrbr8brbrbrbr-6b~-| 
|------------------------| 
|------------------------| 
|------------------------| 
|------------------------| 

Gtr.3(though it doesn't seem like it it plays this) 

|---------------------------------| 
|---------------------------------| 
|---------------------------------|x3 
|-11-11-11-11-11-11--9-9-9-9-9-9--| 
|-11-11-11-11-11-11--9-9-9-9-9-9--| 
|-9--9--9--9--9--9---7-7-7-7-7-7--| 

|-----------------------| 
|-----------------------| 
|-----------------------| 
|-11-11-11-11-11-11-9~--| 
|-11-11-11-11-11-11-9~--| 
|-9--9--9--9--9--9--7~--| 

Chorus: 

Gtr.3 

|-5~---3~----5~---3~---10~---10~--| 
|-7~---3~----7~---3~---10~---12~--| 
|-7~---4~----7~---4~---11~---12~--| 
|-7~---5~----7~---5~---12~---12~--| 
|-5~---5~----5~---5~---12~---10~--| 
|-5~---3~----5~---3~---10~---10~--| 

Back to verse: 


|---------------------------------------------------------| 
|--8hb~-8hb~-8hb~-8hb~-8hb~-8hb~-8hb~-8hb~-8hb~-8hb~-8hb~-| 
|---------------------------------------------------------| 
|---------------------------------------------------------| 
|---------------------------------------------------------| 
|---------------------------------------------------------| 


|-----------------------------------------------------------| 
|--8hb~-8hb~-8hb-11hb~-11hb~-11hb~-8hb~-8hb~-8hb~-8hb~-8hb~-| 
|-----------------------------------------------------------|x2 
|-----------------------------------------------------------| 
|-----------------------------------------------------------| 
|-----------------------------------------------------------| 

Gtr.2 

|---------------13---------------------------------------| 
|-8hb~-8hb~8hb~----8hb~-8hb~8hb~---8hb~-8hb~---8hb~-8hb~-| 
|--------------------------------8-----------7-----------| 
|--------------------------------------------------------|  
|--------------------------------------------------------| 
|--------------------------------------------------------| 

|-----------------------------------------------------------------------| 
|-8hb~-8hb~-8hb~-13br-13hbp11~-11~-11-13-8hb~-8hb~-8hb~-8hb~-8hb~--11hb-| 
|-----------------------------------------------------------------------|x2  
|-----------------------------------------------------------------------| 
|-----------------------------------------------------------------------| 
|-----------------------------------------------------------------------| 

Gtr.3 

|----------------------------------------------------------------------| 
|----------------------------------------------------------------------| 
|----------------------------------------------------------------------|x2 
|-5---5--5---5--5---5--5---5--5---5--5--5-8--8--8--5--5---5--5---5--5--| 
|-5---5--5---5--5---5--5---5--5---5--5--5-8--8--8--5--5---5--5---5--5--| 
|-3---3--3---3--3---3--3---3--3---3--3--3-6--6--6--3--3---3--3---3--3--| 

Pre-chorus: 

Gtr.1 

|------------------------------------------------| 
|-8brbrbrbr8brbrbrbr-6b--6b-6b-6b-6b-6b-6b-6b-6b-| 
|------------------------------------------------|x3 
|------------------------------------------------| 
|------------------------------------------------| 
|------------------------------------------------| 

|------------------------| 
|-8brbrbrbr8brbrbrbr-6b~-| 
|------------------------| 
|------------------------| 
|------------------------| 
|------------------------| 

Gtr.2 

|------------------------------------------------| 
|-8brbrbrbr8brbrbrbr-6b--6b-6b-6b-6b-6b-6b-6b-6b-| 
|------------------------------------------------|x3 
|------------------------------------------------| 
|------------------------------------------------| 
|------------------------------------------------| 

|------------------------| 
|-8brbrbrbr8brbrbrbr-6b~-| 
|------------------------| 
|------------------------| 
|------------------------| 
|------------------------| 

Gtr.3 

|---------------------------------| 
|---------------------------------| 
|---------------------------------|x3 
|-11-11-11-11-11-11--9-9-9-9-9-9--| 
|-11-11-11-11-11-11--9-9-9-9-9-9--| 
|-9--9--9--9--9--9---7-7-7-7-7-7--| 

|-----------------------| 
|-----------------------| 
|-----------------------| 
|-11-11-11-11-11-11-9~--| 
|-11-11-11-11-11-11-9~--| 
|-9--9--9--9--9--9--7~--| 

Chorus: 

Gtr.3 

|-5~---3~----5~---3~---10~---10~--| 
|-7~---3~----7~---3~---10~---12~--| 
|-7~---4~----7~---4~---11~---12~--| 
|-7~---5~----7~---5~---12~---12~--| 
|-5~---5~----5~---5~---12~---10~--| 
|-5~---3~----5~---3~---10~---10~--| 

Solo: 

Gtr.1 

|------------------------------------------------------------| 
|-8h10p8h10p8h10p8h10p8h10p8h10p8-9p8h9p8h9p8h9p8h9p8h9p8h9--| 
|------------------------------------------------------------| 
|------------------------------------------------------------| 
|------------------------------------------------------------| 
|------------------------------------------------------------| 

|------------------------------------------------------------| 
|-8h10p8h10p8h10p8h10p8h10p8h10p8-9p8h9p8h9p8h9p8h9p8h9p8h9--| 
|------------------------------------------------------------| 
|------------------------------------------------------------| 
|------------------------------------------------------------| 
|------------------------------------------------------------| 

|-------------------------------------------------------------| 
|-*111111111111/131313131313/151515151515/191919191919191919--| 
|-------------------------------------------------------------| 
|-------------------------------------------------------------| 
|-------------------------------------------------------------| 
|-------------------------------------------------------------| 

*-tremolo 

|-------------------------------------------| 
|-*19b19b19b19b19b19b19b19b19b19b19b19b19b--| 
|-------------------------------------------| 
|-------------------------------------------| 
|-------------------------------------------| 
|-------------------------------------------| 

Gtr.2 

|---------------13---------------------------------------| 
|-8hb~-8hb~8hb~----8hb~-8hb~8hb~---8hb~-8hb~---8hb~-8hb~-| 
|--------------------------------8-----------7-----------| 
|--------------------------------------------------------| 
|--------------------------------------------------------| 
|--------------------------------------------------------| 

|-----------------------------------------------------------------------| 
|-8hb~-8hb~-8hb~-13br-13hbp11~-11~-11-13-8hb~-8hb~-8hb~-8hb~-8hb~--11hb-| 
|-----------------------------------------------------------------------|x2 
|-----------------------------------------------------------------------| 
|-----------------------------------------------------------------------| 
|-----------------------------------------------------------------------| 

Gtr.3(not sure if it's correct) 
|----------------------------------------------------------------------| 
|----------------------------------------------------------------------| 
|----------------------------------------------------------------------|x2 
|-5---5--5---5--5---5--5---5--5---5--5--5-8--8--8--5--5---5--5---5--5--| 
|-5---5--5---5--5---5--5---5--5---5--5--5-8--8--8--5--5---5--5---5--5--| 
|-3---3--3---3--3---3--3---3--3---3--3--3-6--6--6--3--3---3--3---3--3--| 

Then again: 

Gtr.1(it now plays a little more silently,again not sure if it's correct) 

|---------------------------------------------------------------| 
|---------------------------------------------------------------| 
|---------------------------------------------------------------| 
|--5h7p5h7p5h7p5h7p5h7p5h7p5h7p5-6p5h6p5h6p5h6p5h6p5h6p5h6p5h6--| 
|---------------------------------------------------------------| 
|---------------------------------------------------------------| 

|---------------------------------------------------------------| 
|---------------------------------------------------------------| 
|---------------------------------------------------------------| 
|--5h7p5h7p5h7p5h7p5h7p5h7p5h7p5-6p5h6p5h6p5h6p5h6p5h6p5h6p5h6--| 
|---------------------------------------------------------------| 
|---------------------------------------------------------------| 

|--------------------------------------------------------------| 
|--------------------------------------------------------------| 
|--------------------------------------------------------------| 
|--*888888888888/101010101010/121212121212/161616161616161616--| 
|--------------------------------------------------------------| 
|--------------------------------------------------------------| 

*-tremolo 

|-------------------------------------------| 
|-------------------------------------------| 
|-------------------------------------------| 
|--*16b16b16b16b16b16b16b16b16b16b16b16b16b-| 
|-------------------------------------------| 
|-------------------------------------------| 

Gtr.2 

|---------------13---------------------------------------| 
|-8hb~-8hb~8hb~----8hb~-8hb~8hb~---8hb~-8hb~---8hb~-8hb~-| 
|--------------------------------8-----------7-----------| 
|--------------------------------------------------------| 
|--------------------------------------------------------| 
|--------------------------------------------------------| 

|-----------------------------------------------------------------------| 
|-8hb~-8hb~-8hb~-13br-13hbp11~-11~-11-13-8hb~-8hb~-8hb~-8hb~-8hb~--11hb-| 
|-----------------------------------------------------------------------|x2 
|-----------------------------------------------------------------------| 
|-----------------------------------------------------------------------| 
|-----------------------------------------------------------------------| 

Gtr.3(not sure if it's correct) 

|----------------------------------------------------------------------| 
|----------------------------------------------------------------------| 
|----------------------------------------------------------------------|x2 
|-5---5--5---5--5---5--5---5--5---5--5--5-8--8--8--5--5---5--5---5--5--| 
|-5---5--5---5--5---5--5---5--5---5--5--5-8--8--8--5--5---5--5---5--5--| 
|-3---3--3---3--3---3--3---3--3---3--3--3-6--6--6--3--3---3--3---3--3--| 

Back to verse: 

Gtr.1 

|---------------------------------------------------------| 
|--8hb~-8hb~-8hb~-8hb~-8hb~-8hb~-8hb~-8hb~-8hb~-8hb~-8hb~-| 
|---------------------------------------------------------| 
|---------------------------------------------------------| 
|---------------------------------------------------------| 
|---------------------------------------------------------| 


|-----------------------------------------------------------| 
|--8hb~-8hb~-8hb-11hb~-11hb~-11hb~-8hb~-8hb~-8hb~-8hb~-8hb~-| 
|-----------------------------------------------------------| 
|-----------------------------------------------------------| 
|-----------------------------------------------------------| 
|-----------------------------------------------------------| 

Gtr.2 

|---------------13---------------------------------------| 
|-8hb~-8hb~8hb~----8hb~-8hb~8hb~---8hb~-8hb~---8hb~-8hb~-| 
|--------------------------------8-----------7-----------| 
|--------------------------------------------------------| 
|--------------------------------------------------------| 
|--------------------------------------------------------| 

|-----------------------------------------------------------------------| 
|-8hb~-8hb~-8hb~-13br-13hbp11~-11~-11-13-8hb~-8hb~-8hb~-8hb~-8hb~--11hb-| 
|-----------------------------------------------------------------------| 
|-----------------------------------------------------------------------| 
|-----------------------------------------------------------------------| 
|-----------------------------------------------------------------------| 

Gtr.3 

|----------------------------------------------------------------------| 
|----------------------------------------------------------------------| 
|----------------------------------------------------------------------| 
|-5---5--5---5--5---5--5---5--5---5--5--5-8--8--8--5--5---5--5---5--5--| 
|-5---5--5---5--5---5--5---5--5---5--5--5-8--8--8--5--5---5--5---5--5--| 
|-3---3--3---3--3---3--3---3--3---3--3--3-6--6--6--3--3---3--3---3--3--| 

Pre-chorus: 

Gtr.1 

|------------------------------------------------| 
|-8brbrbrbr8brbrbrbr-6b--6b-6b-6b-6b-6b-6b-6b-6b-| 
|------------------------------------------------|x3 
|------------------------------------------------| 
|------------------------------------------------| 
|------------------------------------------------| 

|------------------------| 
|-8brbrbrbr8brbrbrbr-6b~-| 
|------------------------| 
|------------------------| 
|------------------------| 
|------------------------| 

Gtr.2 

|------------------------------------------------| 
|-8brbrbrbr8brbrbrbr-6b--6b-6b-6b-6b-6b-6b-6b-6b-| 
|------------------------------------------------|x3 
|------------------------------------------------| 
|------------------------------------------------| 
|------------------------------------------------| 

|------------------------| 
|-8brbrbrbr8brbrbrbr-6b~-| 
|------------------------| 
|------------------------| 
|------------------------| 
|------------------------| 

Gtr.3(though it doesn't seem like it it plays this) 

|---------------------------------| 
|---------------------------------| 
|---------------------------------|x3 
|-11-11-11-11-11-11--9-9-9-9-9-9--| 
|-11-11-11-11-11-11--9-9-9-9-9-9--| 
|-9--9--9--9--9--9---7-7-7-7-7-7--| 

|-----------------------| 
|-----------------------| 
|-----------------------| 
|-11-11-11-11-11-11-9~--| 
|-11-11-11-11-11-11-9~--| 
|-9--9--9--9--9--9--7~--| 

Chorus: 

Gtr.1 

|---------------------------------------------------| 
|-*8b8b8b8b8b8b8b8b8b8b~-------8~-7~----------------| 
|--------------------------7-7-------7-4~--2~-0~**--| 
|---------------------------------------------------| 
|---------------------------------------------------| 
|---------------------------------------------------| 

*tremolo 

**shake it with the whammy bar 

Gtr.3 

|-5~---3~----5~---3~---10~---10~--| 
|-7~---3~----7~---3~---10~---12~--| 
|-7~---4~----7~---4~---11~---12~--| 
|-7~---5~----7~---5~---12~---12~--| 
|-5~---5~----5~---5~---12~---10~--| 
|-5~---3~----5~---3~---10~---10~--| 

 
	  

Search Paypal
auto scroll beats size up size down change color hide chords drawings
tab show chords e-chords YouTube Clip e-chords hide all tabs e-chords go to top tab