Queen

home > Queen

Crazy Little Thing Called Love Bass Tab

Queen

Difficulty: EasyEasy

by Paulo%5F%5F

tuner correct add songbook print version text version save to e-mail
chordsukulelecavacokeyboardtabbassdrumsharmonicsflute Guitar Pro
chords

Crazy Little Thing Called Love

Year: 1980 - Album: Greatest Hits

(Freddie Mercury)

	  
Parte 1: 

G|---------------------------------------------9-----------------| 
D|------------9---------------9--------9-12-12---12-10-10-9-9----| 
A|----9-12-12---12----9-12-12---12--10------------------------10-| 
E|-10--------------10--------------------------------------------| (2x) 

G|--------------| 
D|------------9-| 
A|----9-12-12---| 
E|-10-----------| 

G|------------------------------| 
D|------------------9----9-12---| 
A|------------9-12----12--------| 
E|-6-6-8-8-10-------------------| 

Parte 2: 

G|------------------------------------------------------------| 
D|-5-------5---------------5--------8-7-5---------------------| 
A|---7-5-7---7-5-7-3-3-3-3---7-5-7--------8-6-5-----7-7-------| 
E|----------------------------------------------8-6-----5-5-1-| 

G|--------------------------------| 
D|--------------------------------| 
A|-5-4-3---------7-7-7-7-7-7--12--| 
E|--------5-4-3-------------------| 

Solo: 

G|----------------------------7---------7--------------------| 
D|--8---------8-8-----------7---5-5---7---7--8-7-5-----------| 
A|----10-8-10-----10-8----5---------5--------------8-6-5-----| 
E|-------------------------------------------------------8-6-| 

G|----------------------------------------------| 
D|----------------------------------------------| 
A|-7-7----------5-4-3---------7-7-7-7--9-11-12--| 
E|------5-5--1---------5-4-3--------------------| 

Pos-Solo: 

G|----------------| 
D|-12-------------| 
A|-----10-9-------| 
E|----------12-10-| 

Parte 3: 


G|---------------------------------------------9-----------------| 
D|------------9---------------9--------9-12-12---12-10-10-9-9----| 
A|----9-12-12---12----9-12-12---12--10------------------------10-| 
E|-10--------------10--------------------------------------------| (2x) 

G|--------------| 
D|------------9-| 
A|----9-12-12---| 
E|-10-----------| 

G|--------------------------------------------------------------------| 
D|--------------------9\---------------------9--8-8-10-10-12-12-12-12-| 
A|------------9-12-12----------------9-12-12--------------------------| 
E|-6-6-8-8-10-------------6-6-8-8-10----------------------------------| 


	  

there isn't a video lesson for this song

request
Search
auto scroll beats size up size down change color hide chords drawings
tab show chords e-chords YouTube Clip e-chords hide all tabs e-chords go to top tab