Elvis Presley

home > Elvis Presley

Crazy little thing called love Bass Tab

Elvis Presley

Difficulty: nolevelnolevel

by VsWorld

tuner correct add songbook print version text version save to e-mail
chordsukulelecavacokeyboardtabbassdrumsharmonicsflute Guitar Pro
chords

Crazy little thing called love

  		
Intro 
G|--------------4-4-------------4-4-----------------9-9-10-10-9--------| 
D|------4-4-7-7---------4-4-7-7-----------9-9-12-12-------------12-9---|  x2 
A|--5-5-------------5-5-------------10-10------------------------------| 
E|---------------------------------------------------------------------| 

G|--------------4-4---------------------------5-4-5----| 
D|------4-4-7-7-----------------------4-4-7-7----------| 
A|--5-5--------------5--5-5-3--3--5-5----------------5-| 
E|-----------------------------------------------------| 

G|--------------4-4-------------4-4-----------------9-9-10-10-9--------| 
D|------4-4-7-7---------4-4-7-7-----------9-9-12-12-------------12-9---|  x2 
A|--5-5-------------5-5-------------10-10------------------------------| 
E|---------------------------------------------------------------------| 

G|--------------4-4--------------------------5-4-5---| 
D|------4-4-7-7----------------------4-4-7-7---------| 
A|--5-5-------------5--5-5-3--3--5-5---------------5-| 
E|---------------------------------------------------| 

G|------------------------------------------------------------------------------| 
D|----------------------------------------------15-13-12-10-8-6-4-2-------------| 
A|--5---7--5-5-7--5---7--5-5-7--7-7-7-7-5-5-5-5---------------------5--5--5-7-5-| 
E|------------------------------------------------------------------------------| 

G|-----------------------------------| 
D|-----------------------------------| 
A|--5--4--3------------5-5-5-5-5-5-7-| 
E|-----------5--4--3-----------------| 

G|--------------4-4-------------4-4-----------------9-9-10-10-9--------| 
D|------4-4-7-7---------4-4-7-7-----------9-9-12-12-------------12-9---|  x2 
A|--5-5-------------5-5-------------10-10------------------------------| 
E|---------------------------------------------------------------------| 

G|--------------4-4-------------------------5-4-5---| 
D|------4-4-7-7---------------------4-4-7-7---------| 
A|--5-5-------------5--5-5-3--3-5-5---------------5-| 
E|--------------------------------------------------| 

G|--4----------4---------------------------------------------------| 
D|-----7--4--7----7--4--7-----4--7--4-----4--7--4------------------| 
A|-------------------------5-----------5-----------9-8-7-6-5-4-3-2-| 
E|-----------------------------------------------------------------| 

G|--------------------------------------------| 
D|--------------------------------------------|   Take a break 
A|--5-5-5-5-7--5--4--3----------5-5-5-5-6-6-7-| 
E|----------------------5--4--3---------------| 

G|---------  --------------4-4-------------4-4----------------9-9-10-10-9--------| 
D|--7-5-4-2  ------4-4-7-7---------4-4-7-7----------9-9-12-12-------------12-9---|  x2 
A|---------  --5-5-------------5-5-------------10-10-----------------------------| 
E|---------  --------------------------------------------------------------------| 

G|--------------4-4-------------------------4-4-| 
D|------4-4-7-7---------------------4-4-7-7-----| 
A|--5-5-------------5--5-5-3--3-5-5-------------| 
E|----------------------------------------------| 

G|---------------------------------------------------------4-4-| 
D|-------------------------------------------------4-4-7-7-----|  repeat till end 
A|--5--5-5-3--3-5--5-5-5-5-5-5-5---5--5-5-3--3-5-5-------------| 
E|-------------------------------------------------------------| 
	  

Search Paypal
auto scroll beats size up size down change color hide chords drawings
tab show chords e-chords YouTube Clip e-chords hide all tabs e-chords go to top tab