Pearl Jam

home > Pearl Jam

Brain of J Bass Tab

Pearl Jam

Difficulty: nolevelnolevel

by Apocalyptica

tuner correct add songbook print version text version save to e-mail
chordsukulelecavacokeyboardtabbassdrumsharmonicsflute Guitar Pro
chords

Brain of J

  		Transcribed by: Shaun Boer 
Email: [email protected] 
 
This song is pretty fast so if you play with your fingers (which is the best 
way to play bass...) you'l have to move them quickly. 
For those who use a pick, it's a sinch. 
 
Email me with comments or suggestions.... 
 
G|------------------------------------------------------------------|--------- 
D|------------------------------------------------------------------|--------- 
A|----------------------------------5-----5-------------------------|--------- 
E|---7--7--7--6--6--6--5---5--6--7-----7------7--7--7--6--6--6--5---|--5-5-5-- 
  Main Riff 
 
-|---------------------------------------|------------------------------------ 
-|---------------------------------------|------------------------------------ 
-|---------------------------------------|------------------------------------ 
-|---8---8---8---\---4---4---\---1---1---|---8---8---8---\---4---4---/---6---- 
  Chorus                                                                       
 
-|----------------------|-----------------------|----------------------------- 
-|----------------4-----|-----------------------|--------------4-------------- 
-|------2-h-3--5-----5--|-------2-h-3--5--5--3--|-----2-h-3--5---5--7--7--5--- 
-|--3-------------------|--3-3------------------|--3-------------------------- 
  Bridge                                                                 x2    
 
-|---------------------|------------------------------|----------------------- 
-|---------------4-----|---2-2-2-2--4-4-4-4--5-5-5-5--|---5-----5-----5------- 
-|-----2-h-3--5-----5--|------------------------------|------5-----5------5--- 
-|--3------------------|------------------------------|----------------------- 
                         Build-up...  (I didn't count - u can figure it out)   
 
-|-------------------------------------|-------------------------------------- 
-|-------------------------------------|-------------------------------------- 
-|---------------------------6------6--|-------------------------------------- 
-|---8-8-8--7-7-7--6--6-7-8-----8------|---8-8-8--7-7-7--6---\---------------- 
  The last riff starts on C instead of B...              Hold then slide.      
 
Have fun. 
 
 
 
 

	  

Full key step upFull key step up
Half key step upHalf key step up
Half key step downHalf key step down
Full key step downFull key step down
Search Paypal
auto scroll beats size up size down change color hide chords drawings
tab show chords e-chords YouTube Clip e-chords hide all tabs e-chords go to top tab