Pearl Jam

home > Pearl Jam

Brain of J Tab

Pearl Jam

Difficulty: nolevelnolevel

by Apocalyptica

tuner correct add songbook print version text version save to e-mail
chordsukulelecavacokeyboardtabbassdrumsharmonicsflute Guitar Pro
chords

Brain of J

  		Transcribed by: Chris Wilson & Evan Cowan 
Updated 7/7/03 by Evan Cowan 
 
Thanks to Richard van Wingerden for 2 Corrections in the solo and input in the  
interlude. 
 
G1 (Mike) is Open-D (DADF#AD, low to high) 
G2, G3 (Stone) uses standard tuning 
 
1-2-3-4 1-2-3-4!!! 
 
-|----------------|----------------------------------------------------------- 
-|-9--9--8--8-----|----------------------------------------------------------- 
-|-9--9--8--8-----|----------------------------------------------------------- 
-|-9--9--8--8-----|----------------------------------------------------------- 
-|-9--9--8--8-----|----------------------------------------------------------- 
-|-9--9--8--8-----|----------------------------------------------------------- 
 G1                                                                            
 
-|------------------------------------------|------------------------------|-- 
-|-9--9--9--8--8--8--7---7--8--9--7--9--0---|-9--9--9--8--8--8--7----------|-- 
-|-9--9--9--8--8--8--7---7--8--9--7--9--0---|-9--9--9--8--8--8--7----------|-- 
-|-9--9--9--8--8--8--7---7--8--9--7--9--0---|-9--9--9--8--8--8--7----------|-- 
-|-9--9--9--8--8--8--7---7--8--9--7--9--0---|-9--9--9--8--8--8--7----------|-- 
-|-9--9--9--8--8--8--7---7--8--9--7--9--0---|-9--9--9--8--8--8--7----------|-- 
 G1                                                                            
 
-|------------------------------------------|------------------------------|-- 
-|------------------------------------------|------------------------------|-- 
-|------------------------------------------|------------------------------|-- 
-|------------------------------------------|------------------------------|-- 
-|------------------------------------------|------------------------------|-- 
-|------------------------------------------|-------------------------10\--|-- 
 G2                                                                            
 
-|-------------------------------------------|------------------------------|- 
-|-9--9--9--8--8--8--7---7--8--9--7--9--0----|-9--9--9--8--8--8--7--7-7-7-7-|- 
-|-9--9--9--8--8--8--7---7--8--9--7--9--0----|-9--9--9--8--8--8--7--7-7-7-7-|- 
-|-9--9--9--8--8--8--7---7--8--9--7--9--0----|-9--9--9--8--8--8--7--7-7-7-7-|- 
-|-9--9--9--8--8--8--7---7--8--9--7--9--0----|-9--9--9--8--8--8--7--7-7-7-7-|- 
-|-9--9--9--8--8--8--7---7--8--9--7--9--0----|-9--9--9--8--8--8--7--7-7-7-7-|- 
 G1                                                                            
 
-|-------------------------------------------|------------------------------|- 
-|-------------------------------------------|------------------------------|- 
-|-------------------------------------------|------------------------------|- 
-|-------------------------------------------|------------------------------|- 
-|--------------------------------5----------|------------------------------|- 
-|-7--7--7--6--6--6--5---5--6--7-----7--0--0-|-7--7--7--6--6--6--5--\--/10\-|- 
 G2                                                                            
 
-|-------------------------------------------|------------------------------|- 
-|-9--9--9--8--8--8--7---7--8--9--7--9--0----|-9--9--9--8--8--8--7--7-7-7-7-|- 
-|-9--9--9--8--8--8--7---7--8--9--7--9--0----|-9--9--9--8--8--8--7--7-7-7-7-|- 
-|-9--9--9--8--8--8--7---7--8--9--7--9--0----|-9--9--9--8--8--8--7--7-7-7-7-|- 
-|-9--9--9--8--8--8--7---7--8--9--7--9--0----|-9--9--9--8--8--8--7--7-7-7-7-|- 
-|-9--9--9--8--8--8--7---7--8--9--7--9--0----|-9--9--9--8--8--8--7--7-7-7-7-|- 
 G1                                                                            
 
-|-------------------------------------------|------------------------------|- 
-|-------------------------------------------|------------------------------|- 
-|-------------------------------------------|------------------------------|- 
-|-------------------------------------------|------------------------------|- 
-|--------------------------------5----------|------------------------------|- 
-|-7--7--7--6--6--6--5---5--6--7-----7--0--0-|-7--7--7--6--6--6--5---/10\---|- 
 G2                                                                            
 
-|-------------------------------------------------|-------------------------- 
-|-------------------7--------7--8--9--7--9--0-----|-------------------------- 
-|-------------------7--------7--8--9--7--9--0-----|-------------------------- 
-|-9--9--9--8--8--8--7--------7--8--9--7--9--0-----|-------------------------- 
-|-9--9--9--8--8--8--7--------7--8--9--7--9--0-----|-------------------------- 
-|-9--9--9--8--8--8--7--------7--8--9--7--9--0-----|-------------------------- 
 G1      Who's           got  the  brain   of JF-                              
 
-|-7-----7-----7-----7-----7-----7-----7-----7-----|-------------------------- 
-|-7-----7-----7-----7-----7-----7-----7-----7-----|-------------------------- 
-|-------------------------------------------------|-------------------------- 
-|-------------------------------------------------|-------------------------- 
-|-------------------------------------------------|-------------------------- 
-|-------------------------------------------------|-------------------------- 
 G1 (Slowly rock wah back and forth throughout verse)                          
 
-|--------------------------------------------------|------------------------- 
-|--------------------7--------7--7-----7--7--7--7--|------------------------- 
-|--------------------7--------7--7-----7--7--7--7--|------------------------- 
-|--9--9--9--8--8--8--7--------7--7-----7--7--7--7--|------------------------- 
-|--9--9--9--8--8--8--7--------7--7-----7--7--7--7--|------------------------- 
-|--9--9--9--8--8--8--7--------7--7-----7--7--7--7--|------------------------- 
 G1  -K, what's it mean to us now?      yeah                                   
 
-|-10----10----10----10----10----10----10----10-----|------------------------- 
-|-10----10----10----10----10----10----10----10-----|------------------------- 
-|--------------------------------------------------|------------------------- 
-|--------------------------------------------------|------------------------- 
-|--------------------------------------------------|------------------------- 
-|--------------------------------------------------|------------------------- 
 G2                                                                            
 
-|--------------------------------------------------|------------------------- 
-|--------------------7--------7--8--9--7--9--0-----|------------------------- 
-|--------------------7--------7--8--9--7--9--0-----|------------------------- 
-|--9--9--9--8--8--8--7--------7--8--9--7--9--0-----|------------------------- 
-|--9--9--9--8--8--8--7--------7--8--9--7--9--0-----|------------------------- 
-|--9--9--9--8--8--8--7--------7--8--9--7--9--0-----|------------------------- 
 G1       Boss     it's hard to trust but I can                                
 
-|-10----10----10----10----10----10----10----10-----|------------------------- 
-|-10----10----10----10----10----10----10----10-----|------------------------- 
-|--------------------------------------------------|------------------------- 
-|--------------------------------------------------|------------------------- 
-|--------------------------------------------------|------------------------- 
-|--------------------------------------------------|------------------------- 
 G2                                                                            
 
-|--------------------------------------------------|------------------------- 
-|--------------------7--------7--7-----7--7--7--7--|------------------------- 
-|--------------------7--------7--7-----7--7--7--7--|------------------------- 
-|--9--9--9--8--8--8--7--------7--7-----7--7--7--7--|------------------------- 
-|--9--9--9--8--8--8--7--------7--7-----7--7--7--7--|------------------------- 
-|--9--9--9--8--8--8--7--------7--7-----7--7--7--7--|------------------------- 
 G1 Tell ya   this is no lie     yeah                                          
 
-|-10h12-10h12-10h12-10h12-10h12-10----10----10-----|------------------------- 
-|-------------------------------10----10----10-----|------------------------- 
-|--------------------------------------------------|------------------------- 
-|--------------------------------------------------|------------------------- 
-|--------------------------------------------------|------------------------- 
-|--------------------------------------------------|------------------------- 
 G2                                                                            
 
-|----------------10---10-10-10-10-10-10-10-|--------------------------------- 
-|--10---10-13----10---10-10-10-10-10-10-10-|--------------------------------- 
-|--10---10-10----11---11-11-11-11-11-11-11-|--------------------------------- 
-|--10---10-10----10---10-10-10-10-10-10-10-|--------------------------------- 
-|--10---10-10----10---10-10-10-10-10-10-10-|--------------------------------- 
-|--10---10-10----10---10-10-10-10-10-10-10-|--------------------------------- 
 G1     The whole world will be different                                      
 
-|------------------------------------------|--------------------------------- 
-|---8----8-11-----8----8--8--8--8--8--8--8-|--------------------------------- 
-|---9----9--9----10---10-10-10-10-10-10-10-|--------------------------------- 
-|--10---10-10----10---10-10-10-10-10-10-10-|--------------------------------- 
-|------------------------------------------|--------------------------------- 
-|------------------------------------------|--------------------------------- 
 G2                                                                            
 
-|------------------10---10-10-10-10-10-10-10-|------------------------------- 
-|--10----10--13----10---10-10-10-10-10-10-10-|------------------------------- 
-|--10----10--10----11---11-11-11-11-11-11-11-|------------------------------- 
-|--10----10--10----10---10-10-10-10-10-10-10-|------------------------------- 
-|--10----10--10----10---10-10-10-10-10-10-10-|------------------------------- 
-|--10----10--10----10---10-10-10-10-10-10-10-|------------------------------- 
 G1 Soon, the whole world will be reliev-ed                                    
 
-|--------------------------------------------|------------------------------- 
-|---8-----8--11-----8----8--8--8--8--8--8--8-|------------------------------- 
-|---9-----9---9----10---10-10-10-10-10-10-10-|------------------------------- 
-|--10----10--10----10---10-10-10-10-10-10-10-|------------------------------- 
-|--------------------------------------------|------------------------------- 
-|--------------------------------------------|------------------------------- 
 G2                                                                            
 
-|----------------10---10-10-10-10-10-10-10-|--------------------------------- 
-|--10---10-13----10---10-10-10-10-10-10-10-|--------------------------------- 
-|--10---10-10----11---11-11-11-11-11-11-11-|--------------------------------- 
-|--10---10-10----10---10-10-10-10-10-10-10-|--------------------------------- 
-|--10---10-10----10---10-10-10-10-10-10-10-|--------------------------------- 
-|--10---10-10----10---10-10-10-10-10-10-10-|--------------------------------- 
 G1     The whole world will be different                                      
 
-|------------------------------------------|--------------------------------- 
-|---8----8-11-----8----8--8--8--8--8--8--8-|--------------------------------- 
-|---9----9--9----10---10-10-10-10-10-10-10-|--------------------------------- 
-|--10---10-10----10---10-10-10-10-10-10-10-|--------------------------------- 
-|------------------------------------------|--------------------------------- 
-|------------------------------------------|--------------------------------- 
 G2                                                                            
 
-|------------------10---10-10-10-10-10-10-10-|------------------------------- 
-|--10----10--13----10---10-10-10-10-10-10-10-|------------------------------- 
-|--10----10--10----11---11-11-11-11-11-11-11-|------------------------------- 
-|--10----10--10----10---10-10-10-10-10-10-10-|------------------------------- 
-|--10----10--10----10---10-10-10-10-10-10-10-|------------------------------- 
-|--10----10--10----10---10-10-10-10-10-10-10-|------------------------------- 
 G1 Soon, the whole world will be reliev-ed                                    
 
-|--------------------------------------------|------------------------------- 
-|---8-----8--11-----8----8--8--8--8--8--8--8-|------------------------------- 
-|---9-----9---9----10---10-10-10-10-10-10-10-|------------------------------- 
-|--10----10--10----10---10-10-10-10-10-10-10-|------------------------------- 
-|--------------------------------------------|------------------------------- 
-|--------------------------------------------|------------------------------- 
 G2                                                                            
 
-|-------------------------------------------|------------------------------|- 
-|-9--9--9--8--8--8--7---7--8--9--7--9--0----|-9--9--9--8--8--8--7----------|- 
-|-9--9--9--8--8--8--7---7--8--9--7--9--0----|-9--9--9--8--8--8--7---x\--/--|- 
-|-9--9--9--8--8--8--7---7--8--9--7--9--0----|-9--9--9--8--8--8--7---x\--/--|- 
-|-9--9--9--8--8--8--7---7--8--9--7--9--0----|-9--9--9--8--8--8--7---x\--/--|- 
-|-9--9--9--8--8--8--7---7--8--9--7--9--0----|-9--9--9--8--8--8--7----------|- 
 G1                                                                            
 
-|-------------------------------------------|------------------------------|- 
-|-------------------------------------------|------------------------------|- 
-|-------------------------------------------|------------------------------|- 
-|-------------------------------------------|------------------------------|- 
-|--------------------------------5----------|------------------------------|- 
-|-7--7--7--6--6--6--5---5--6--7-----7--0--0-|-7--7--7--6--6--6--5---/-\----|- 
 G2 (with wah)                                                                 
 
-|-------------------------------------------|------------------------------|- 
-|-9--9--9--8--8--8--7---7--8--9--7--9--0----|-9--9--9--8--8--8--7--7-7-7-7-|- 
-|-9--9--9--8--8--8--7---7--8--9--7--9--0----|-9--9--9--8--8--8--7--7-7-7-7-|- 
-|-9--9--9--8--8--8--7---7--8--9--7--9--0----|-9--9--9--8--8--8--7--7-7-7-7-|- 
-|-9--9--9--8--8--8--7---7--8--9--7--9--0----|-9--9--9--8--8--8--7--7-7-7-7-|- 
-|-9--9--9--8--8--8--7---7--8--9--7--9--0----|-9--9--9--8--8--8--7--7-7-7-7-|- 
 G1                                                                            
 
-|-------------------------------------------|------------------------------|- 
-|-------------------------------------------|------------------------------|- 
-|-------------------------------------------|------------------------------|- 
-|-------------------------------------------|------------------------------|- 
-|--------------------------------5----------|------------------------------|- 
-|-7--7--7--6--6--6--5---5--6--7-----7--0--0-|-7--7--7--6--6--6--5---/-\----|- 
 G2                                                                            
 
-|-------------------------------------------------|-------------------------- 
-|-------------------7--------7--8--9--7--9--0-----|-------------------------- 
-|-------------------7--------7--8--9--7--9--0-----|-------------------------- 
-|-9--9--9--8--8--8--7--------7--8--9--7--9--0-----|-------------------------- 
-|-9--9--9--8--8--8--7--------7--8--9--7--9--0-----|-------------------------- 
-|-9--9--9--8--8--8--7--------7--8--9--7--9--0-----|-------------------------- 
 G1    You            you've been taught whipped into                          
 
-|-7-----7-----7-----7-----7-----7-----7----10h12--|-------------------------- 
-|-7-----7-----7-----7-----7-----7-----7----10-----|-------------------------- 
-|-------------------------------------------------|-------------------------- 
-|-------------------------------------------------|-------------------------- 
-|-------------------------------------------------|-------------------------- 
-|-------------------------------------------------|-------------------------- 
 G2 (slowly rock wah back and forth throughout verse)                          
 
-|--------------------------------------------------|------------------------- 
-|--------------------7--------7--7-----7--7--7--7--|------------------------- 
-|--------------------7--------7--7-----7--7--7--7--|------------------------- 
-|--9--9--9--8--8--8--7--------7--7-----7--7--7--7--|------------------------- 
-|--9--9--9--8--8--8--7--------7--7-----7--7--7--7--|------------------------- 
-|--9--9--9--8--8--8--7--------7--7-----7--7--7--7--|------------------------- 
 G1 Shape now they got you in line     yeah                                    
 
-|-10h12-10----10----10----10----10----10----10-----|------------------------- 
-|-10----10----10----10----10----10----10----10-----|------------------------- 
-|--------------------------------------------------|------------------------- 
-|--------------------------------------------------|------------------------- 
-|--------------------------------------------------|------------------------- 
-|--------------------------------------------------|------------------------- 
 G2                                                                            
 
-|--------------------------------------------------|------------------------- 
-|--------------------7--------7--8--9--7--9--0-----|------------------------- 
-|--------------------7--------7--8--9--7--9--0-----|------------------------- 
-|--9--9--9--8--8--8--7--------7--8--9--7--9--0-----|------------------------- 
-|--9--9--9--8--8--8--7--------7--8--9--7--9--0-----|------------------------- 
-|--9--9--9--8--8--8--7--------7--8--9--7--9--0-----|------------------------- 
 G1       Stand       behind the stripes there will be                         
 
-|-10----10----10----10----10----10----10----10h12--|------------------------- 
-|-10----10----10----10----10----10----10----10-----|------------------------- 
-|--------------------------------------------------|------------------------- 
-|--------------------------------------------------|------------------------- 
-|--------------------------------------------------|------------------------- 
-|--------------------------------------------------|------------------------- 
 G2                                                                            
 
-|--------------------------------------------------|------------------------- 
-|--------------------7--------7--7-----7--7--7--7--|------------------------- 
-|--------------------7--------7--7-----7--7--7--7--|------------------------- 
-|--9--9--9--8--8--8--7--------7--7-----7--7--7--7--|------------------------- 
-|--9--9--9--8--8--8--7--------7--7-----7--7--7--7--|------------------------- 
-|--9--9--9--8--8--8--7--------7--7-----7--7--7--7--|------------------------- 
 G1 Order, so give up your mind     yeah                                       
 
-|-10h12-10----10-----------------------------------|------------------------- 
-|-10----10----10----13-b-15vvvvvvvvvv--------------|------------------------- 
-|--------------------------------------------------|------------------------- 
-|--------------------------------------------------|------------------------- 
-|--------------------------------------------------|------------------------- 
-|--------------------------------------------------|------------------------- 
 G2                                                                            
 
-|----------------10---10-10-10-10-10-10-10-|--------------------------------- 
-|--10---10-13----10---10-10-10-10-10-10-10-|--------------------------------- 
-|--10---10-10----11---11-11-11-11-11-11-11-|--------------------------------- 
-|--10---10-10----10---10-10-10-10-10-10-10-|--------------------------------- 
-|--10---10-10----10---10-10-10-10-10-10-10-|--------------------------------- 
-|--10---10-10----10---10-10-10-10-10-10-10-|--------------------------------- 
 G1     The whole world will be different                                      
 
-|------------------------------------------|--------------------------------- 
-|---8----8-11-----8----8--8--8--8--8--8--8-|--------------------------------- 
-|---9----9--9----10---10-10-10-10-10-10-10-|--------------------------------- 
-|--10---10-10----10---10-10-10-10-10-10-10-|--------------------------------- 
-|------------------------------------------|--------------------------------- 
-|------------------------------------------|--------------------------------- 
 G2                                                                            
 
-|------------------10---10-10-10-10-10-10-10-|------------------------------- 
-|--10----10--13----10---10-10-10-10-10-10-10-|------------------------------- 
-|--10----10--10----11---11-11-11-11-11-11-11-|------------------------------- 
-|--10----10--10----10---10-10-10-10-10-10-10-|------------------------------- 
-|--10----10--10----10---10-10-10-10-10-10-10-|------------------------------- 
-|--10----10--10----10---10-10-10-10-10-10-10-|------------------------------- 
 G1 Soon, the whole world will be reliev-ed                                    
 
-|--------------------------------------------|------------------------------- 
-|---8-----8--11-----8----8--8--8--8--8--8--8-|------------------------------- 
-|---9-----9---9----10---10-10-10-10-10-10-10-|------------------------------- 
-|--10----10--10----10---10-10-10-10-10-10-10-|------------------------------- 
-|--------------------------------------------|------------------------------- 
-|--------------------------------------------|------------------------------- 
 G2                                                                            
 
-|----------------10---10-10-10-10-10-10-10-|--------------------------------- 
-|--10---10-13----10---10-10-10-10-10-10-10-|--------------------------------- 
-|--10---10-10----11---11-11-11-11-11-11-11-|--------------------------------- 
-|--10---10-10----10---10-10-10-10-10-10-10-|--------------------------------- 
-|--10---10-10----10---10-10-10-10-10-10-10-|--------------------------------- 
-|--10---10-10----10---10-10-10-10-10-10-10-|--------------------------------- 
 G1     The whole world will be different                                      
 
-|------------------------------------------|--------------------------------- 
-|---8----8-11-----8----8--8--8--8--8--8--8-|--------------------------------- 
-|---9----9--9----10---10-10-10-10-10-10-10-|--------------------------------- 
-|--10---10-10----10---10-10-10-10-10-10-10-|--------------------------------- 
-|------------------------------------------|--------------------------------- 
-|------------------------------------------|--------------------------------- 
 G2                                                                            
 
-|------------------10---10-10-10-10-10-10-10-|------------------------------- 
-|--10----10--13----10---10-10-10-10-10-10-10-|------------------------------- 
-|--10----10--10----11---11-11-11-11-11-11-11-|------------------------------- 
-|--10----10--10----10---10-10-10-10-10-10-10-|------------------------------- 
-|--10----10--10----10---10-10-10-10-10-10-10-|------------------------------- 
-|--10----10--10----10---10-10-10-10-10-10-10-|------------------------------- 
 G1 Soon, the whole world will be reliev-ed                                    
 
-|--------------------------------------------|------------------------------- 
-|---8-----8--11-----8----8--8--8--8--8--8--8-|------------------------------- 
-|---9-----9---9----10---10-10-10-10-10-10-10-|------------------------------- 
-|--10----10--10----10---10-10-10-10-10-10-10-|------------------------------- 
-|--------------------------------------------|------------------------------- 
-|--------------------------------------------|------------------------------- 
 G2                                                                            
 
-|-13-------12---------------------------------|------------------------------ 
-|-------------------13---13-13-13-13-13-13-13-|------------------------------ 
-|-------------------11---11-11-11-11-11-11-11-|------------------------------ 
-|-------------------10---10-10-10-10-10-10-10-|------------------------------ 
-|-------------------10---10-10-10-10-10-10-10-|------------------------------ 
-|---------------------------------------------|------------------------------ 
 G1                                                                            
 
-|-11-11-11-10------------------------------11-|------------------------------ 
-|--8--8--8--8-------11---11-11-11-11--8--8--8-|------------------------------ 
-|---------------------------------------------|------------------------------ 
-|---------------------------------------------|------------------------------ 
-|---------------------------------------------|------------------------------ 
-|---------------------------------------------|------------------------------ 
 G2                                                                            
 
-|-13-------12---------------------------------|------------------------------ 
-|-------------------13---13-13-13-13-13-13-13-|------------------------------ 
-|-------------------11---11-11-11-11-11-11-11-|------------------------------ 
-|-------------------10---10-10-10-10-10-10-10-|------------------------------ 
-|-------------------10---10-10-10-10-10-10-10-|------------------------------ 
-|---------------------------------------------|------------------------------ 
 G1                                                                            
 
-|-11-11-11-10---------------------------------|------------------------------ 
-|--8--8--8--8-------11b13vvvvvvv--11--8--8----|------------------------------ 
-|---------------------------------------------|------------------------------ 
-|---------------------------------------------|------------------------------ 
-|---------------------------------------------|------------------------------ 
-|---------------------------------------------|------------------------------ 
 G2                                                                            
 
-|-13-------12---------------------------------|------------------------------ 
-|-------------------13---13-13-13-13-13-13-13-|------------------------------ 
-|-------------------11---11-11-11-11-11-11-11-|------------------------------ 
-|-------------------10---10-10-10-10-10-10-10-|------------------------------ 
-|-------------------10---10-10-10-10-10-10-10-|------------------------------ 
-|---------------------------------------------|------------------------------ 
 G1                                                                            
 
-|-11-11-11-10---------------------------------|------------------------------ 
-|--8--8--8--8-------11------11-11-11\8--x--x--|------------------------------ 
-|---------------------------------------------|------------------------------ 
-|---------------------------------------------|------------------------------ 
-|---------------------------------------------|------------------------------ 
-|---------------------------------------------|------------------------------ 
 G2                                                                            
 
-|-13-------12---------------------------------|------------------------------ 
-|-------------------13---13-13-13-13-13-13-13-|------------------------------ 
-|-------------------11---11-11-11-11-11-11-11-|------------------------------ 
-|-------------------10---10-10-10-10-10-10-10-|------------------------------ 
-|-------------------10---10-10-10-10-10-10-10-|------------------------------ 
-|---------------------------------------------|------------------------------ 
 G1                                                                            
 
-|-11-11-11-10---------------------------------|------------------------------ 
-|--8--8--8--8-------11b13vvvvvvv--11\---------|------------------------------ 
-|---------------------------------------------|------------------------------ 
-|---------------------------------------------|------------------------------ 
-|---------------------------------------------|------------------------------ 
-|---------------------------------------------|------------------------------ 
 G2                                                                            
 
-|--0---------------------------|-2h4p2p0---0-----------2h4p2p0---0---------|- 
-|--0---------------------------|---------2-----0---------------2-----------|- 
-|-(0)--------------------------|-------------------------------------------|- 
-|-(0)--------------------------|-------------------------------------------|- 
-|-(0)--------------------------|-------------------------------------------|- 
-|-(0)--------------------------|-------------------------------------------|- 
 G1 Notes in ( ) are played live                                               
 
-|------------------------------|-------------------------------------------|- 
-|------------------------------|-------------------------------------------|- 
-|-12---------------------------|-------------------------------------------|- 
-|------------------------------|-------------------------------------------|- 
-|------------------------------|-------------------------------------------|- 
-|------------------------------|-------------------------------------------|- 
 G2                                                                            
 
-|-------------------------------------------------|-------------------------- 
-|-------------------------------------------------|-------------------------- 
-|-14-14-14-14-14-14-14-14-12-12-12-12-12-12-12-12-|-------------------------- 
-|-------------------------------------------------|-------------------------- 
-|-------------------------------------------------|-------------------------- 
-|-------------------------------------------------|-------------------------- 
 G2 And         by            name                                             
 
-|-------------------------------------------------|-------------------------- 
-|-------------------------------------------------|-------------------------- 
-|-11-11-11-11-11-11-11-11-------------------------|-------------------------- 
-|-------------------------12-12-12-12-12-12-12-12-|-------------------------- 
-|-------------------------------------------------|-------------------------- 
-|-------------------------------------------------|-------------------------- 
 G2       The name they    gave   me                                           
 
-|-------------------------------------------------|-------------------------- 
-|-------------------------------------------------|-------------------------- 
-|-14-14-14-14-14-14-14-14-12-12-12-12-12-12-12-12-|-------------------------- 
-|-------------------------------------------------|-------------------------- 
-|-------------------------------------------------|-------------------------- 
-|-------------------------------------------------|-------------------------- 
 G2       The name I'm     letting                                             
 
-|-----------------------7--7--7--7--7--7--7--7--7-|-------------------------- 
-|-----0--0--0--0--0--0--0--0--0--0--0--0--0--0--0-|-------------------------- 
-|-----0--0--0--0--0--0--x--x--x--x--x--x--x--x--x-|-------------------------- 
-|-----4--4--4--4--4--4--7--7--7--7--7--7--7--7--7-|-------------------------- 
-|-------------------------------------------------|-------------------------- 
-|-------------------------------------------------|-------------------------- 
 G1 Go                                                                         
 
-|-------------------------------------------------|-------------------------- 
-|-------------------------------------------------|-------------------------- 
-|-11-11-11-11-11-11-11-11-------------------------|-------------------------- 
-|-------------------------12-12-12-12-12-12-12-12-|-------------------------- 
-|-------------------------------------------------|-------------------------- 
-|-------------------------------------------------|-------------------------- 
 G2                                                                            
 
-|--7--7--7--7--7--7--7--7-/12*--------------------|-------------------------- 
-|--0--0--0--0--0--0--0--0---x---------------------|-------------------------- 
-|--x--x--x--x--x--x--x--x---x---------------------|-------------------------- 
-|--7--7--7--7--7--7--7--7-/12*--------------------|-------------------------- 
-|---------------------------/---------------------|-------------------------- 
-|---------------------------/---------------------|-------------------------- 
 G1 Of                       *tremolo pick                                     
 
-|-------------------------------------------------|-------------------------- 
-|-------------------------------------------------|-------------------------- 
-|----------------------------------------------12-|-------------------------- 
-|-12-12-12-12-12-12-12-12-12-12-12-12-12-12-12-12-|-------------------------- 
-|----------------------------------------------10-|-------------------------- 
-|-------------------------------------------------|-------------------------- 
 G2                                                                            
 
-|-12*---------------------------------|-------------------------------------- 
-|--x----------------------------------|-------------------------------------- 
-|--x----------------------------------|-------------------------------------- 
-|-12*---------------------------------|-------------------------------------- 
-|--/----------------------------------|-------------------------------------- 
-|--/----------------------------------|-------------------------------------- 
 G1 *tremelo pick                                                              
 
-|-------------------------------------|-------------------------------------- 
-|-------------------------------------|-------------------------------------- 
-|-12----------12----------12----------|-------------------------------------- 
-|-12----12----12----12----12----12----|-------------------------------------- 
-|-10----12----10----12----10----12----|-------------------------------------- 
-|-------10----------10----------10----|-------------------------------------- 
 G2                                                                            
 
-|-----------------------------------------------|---------------------------- 
-|--10-------------------------------------------|---------------------------- 
-|---9b11vvvvvvv-9b11-9b*11-11-11-11-11-11-11-11-|---------------------------- 
-|-----------------------------------------------|---------------------------- 
-|-----------------------------------------------|---------------------------- 
-|-----------------------------------------------|---------------------------- 
 G3 - Solo; G1 plays verse riff 4x  (*gradual bend while picking)              
 
-|------------------------------------|--------------------------------------- 
-|------------------------------------|--------------------------------------- 
-|-9b11r9p7-9b11r9p7------------------|--------------------------------------- 
-|-------------------9vv-7-9-7---7----|--------------------------------------- 
-|-----------------------------9---9--|--------------------------------------- 
-|------------------------------------|--------------------------------------- 
 G3                                                                            
 
-|-----------------------------------------|---------------------------------- 
-|---7b*----7b*----7b*----9b*r-------------|---------------------------------- 
-|---7b*----7b*----7b*----9b*r-7---7-9p7---|---------------------------------- 
-|---------------9---------------9-------9-|---------------------------------- 
-|-----------------------------------------|---------------------------------- 
-|-----------------------------------------|---------------------------------- 
 G3 (*quarter step bends)                                                      
 
-|-12b13r12p10----10----------------------|----------------------------------- 
-|-------------12----12-10-12vvvvvvv-\----|----------------------------------- 
-|----------------------------------------|----------------------------------- 
-|----------------------------------------|----------------------------------- 
-|----------------------------------------|----------------------------------- 
-|----------------------------------------|----------------------------------- 
 G3                                                                            
 
-|-12-12-12-12-12-12-12-12-*\--\--\--\--\--\--\--\-|-------------------------- 
-|-12-12-12-12-12-12-12-12-*\--\--\--\--\--\--\--\-|-------------------------- 
-|-------------------------------------------------|-------------------------- 
-|-------------------------------------------------|-------------------------- 
-|-------------------------------------------------|-------------------------- 
-|-------------------------------------------------|-------------------------- 
 G3    (*Keep picking steady 16th notes will sliding finger down fretboard)    
 
-|-12-12-12-12-12-12-12-12-*\--\--\--\--\--\--\--\-|-------------------------- 
-|-12-12-12-12-12-12-12-12-*\--\--\--\--\--\--\--\-|-------------------------- 
-|-------------------------------------------------|-------------------------- 
-|-------------------------------------------------|-------------------------- 
-|-------------------------------------------------|-------------------------- 
-|-------------------------------------------------|-------------------------- 
 G3                       (*same as above)                                     
 
-|-----------------------------------------|---------------------------------- 
-|-9b*r9-7--9b*r9-7--9b*r9-----------------|---------------------------------- 
-|-9b*r9-7--9b*r9-7--9b*r9p7---7-9-7-9-7-7-|---------------------------------- 
-|---------------------------9-------------|---------------------------------- 
-|-----------------------------------------|---------------------------------- 
-|-----------------------------------------|---------------------------------- 
 G3 (*quarter step bends)                                                      
 
-|--7-------------------10b13------------|------------------------------------ 
-|----10---7--------------------------12-|------------------------------------ 
-|-------9---9b11r9p7--------------------|------------------------------------ 
-|--------------------9------------------|------------------------------------ 
-|---------------------------------------|------------------------------------ 
-|---------------------------------------|------------------------------------ 
 G3                                                                            
 
-|-------------------10-------10-10-10-10-10-10-10-|-------------------------- 
-|-10----10-13-------10-------10-10-10-10-10-10-10-|-------------------------- 
-|-10----10-10-------11-------11-11-11-11-11-11-11-|-------------------------- 
-|-10----10-10-------10-------10-10-10-10-10-10-10-|-------------------------- 
-|-10----10-10-------10-------10-10-10-10-10-10-10-|-------------------------- 
-|-10----10-10-------10-------10-10-10-10-10-10-10-|-------------------------- 
 G1     The whole   world        will be different                             
 
-|-------------------------------------------------|-------------------------- 
-|--8-----8-11--------8--------8--8--8--8--8--8--8-|-------------------------- 
-|--9-----9--9-------10-------10-10-10-10-10-10-10-|-------------------------- 
-|-10----10-10-------10-------10-10-10-10-10-10-10-|-------------------------- 
-|-------------------------------------------------|-------------------------- 
-|-------------------------------------------------|-------------------------- 
 G2                                                                            
 
-|-------------------------------------------------|-------------------------- 
-|-12/13vvvvvvvvvvvvvvvvvvvvvvvvvvvvvvvvvvvvvvvvv--|-------------------------- 
-|-------------------------------------------------|-------------------------- 
-|-------------------------------------------------|-------------------------- 
-|-------------------------------------------------|-------------------------- 
-|-------------------------------------------------|-------------------------- 
 G3                                                                            
 
-|--------------------10-------10-10-10-10-10-10-10-|------------------------- 
-|--10-----10-13------10-------10-10-10-10-10-10-10-|------------------------- 
-|--10-----10-10------11-------11-11-11-11-11-11-11-|------------------------- 
-|--10-----10-10------10-------10-10-10-10-10-10-10-|------------------------- 
-|--10-----10-10------10-------10-10-10-10-10-10-10-|------------------------- 
-|--10-----10-10------10-------10-10-10-10-10-10-10-|------------------------- 
 G1 Soon,  the whole  world      will be reliev-ed                             
 
-|--------------------------------------------------|------------------------- 
-|---8-----8-11--------8--------8--8--8--8--8--8--8-|------------------------- 
-|---9-----9--9-------10-------10-10-10-10-10-10-10-|------------------------- 
-|--10----10-10-------10-------10-10-10-10-10-10-10-|------------------------- 
-|--------------------------------------------------|------------------------- 
-|--------------------------------------------------|------------------------- 
 G2                                                                            
 
-|--------------------------------------------------|------------------------- 
-|--13-13-13-13-13-13-13-13-13-13-13-13-13-13-13-13-|------------------------- 
-|--------------------------------------------------|------------------------- 
-|--------------------------------------------------|------------------------- 
-|--------------------------------------------------|------------------------- 
-|--------------------------------------------------|------------------------- 
 G3                                                                            
 
-|-------------------10-------10-10-10-10-10-10-10-|-------------------------- 
-|-10----10-13-------10-------10-10-10-10-10-10-10-|-------------------------- 
-|-10----10-10-------11-------11-11-11-11-11-11-11-|-------------------------- 
-|-10----10-10-------10-------10-10-10-10-10-10-10-|-------------------------- 
-|-10----10-10-------10-------10-10-10-10-10-10-10-|-------------------------- 
-|-10----10-10-------10-------10-10-10-10-10-10-10-|-------------------------- 
 G1     The whole   world        will be different                             
 
-|-------------------------------------------------|-------------------------- 
-|--8-----8-11--------8--------8--8--8--8--8--8--8-|-------------------------- 
-|--9-----9--9-------10-------10-10-10-10-10-10-10-|-------------------------- 
-|-10----10-10-------10-------10-10-10-10-10-10-10-|-------------------------- 
-|-------------------------------------------------|-------------------------- 
-|-------------------------------------------------|-------------------------- 
 G2                                                                            
 
-|-------------------------------------------------|-------------------------- 
-|-13-13-13-13-13-13-13-13-13-13-13-13-13-13-13-13-|-------------------------- 
-|-------------------------------------------------|-------------------------- 
-|-------------------------------------------------|-------------------------- 
-|-------------------------------------------------|-------------------------- 
-|-------------------------------------------------|-------------------------- 
 G3                                                                            
 
-|--------------------10-------10-10-10-10-10-10-10-|------------------------- 
-|--10-----10-13------10-------10-10-10-10-10-10-10-|------------------------- 
-|--10-----10-10------11-------11-11-11-11-11-11-11-|------------------------- 
-|--10-----10-10------10-------10-10-10-10-10-10-10-|------------------------- 
-|--10-----10-10------10-------10-10-10-10-10-10-10-|------------------------- 
-|--10-----10-10------10-------10-10-10-10-10-10-10-|------------------------- 
 G1 Soon,  the whole  world      will be reliev-ed                             
 
-|--------------------------------------------------|------------------------- 
-|---8-----8-11--------8--------8--8--8--8--8--8--8-|------------------------- 
-|---9-----9--9-------10-------10-10-10-10-10-10-10-|------------------------- 
-|--10----10-10-------10-------10-10-10-10-10-10-10-|------------------------- 
-|--------------------------------------------------|------------------------- 
-|--------------------------------------------------|------------------------- 
 G2                                                                            
 
-|--------------------------------------------------|------------------------- 
-|--13-13-13-13-13-13-13-13-13-13-13-13-13-13-13-13-|------------------------- 
-|--------------------------------------------------|------------------------- 
-|--------------------------------------------------|------------------------- 
-|--------------------------------------------------|------------------------- 
-|--------------------------------------------------|------------------------- 
 G3                                                                            
 
-|-------------------10-------10-10-10-10-10-10-10-|-------------------------- 
-|-10----10-13-------10-------10-10-10-10-10-10-10-|-------------------------- 
-|-10----10-10-------11-------11-11-11-11-11-11-11-|-------------------------- 
-|-10----10-10-------10-------10-10-10-10-10-10-10-|-------------------------- 
-|-10----10-10-------10-------10-10-10-10-10-10-10-|-------------------------- 
-|-10----10-10-------10-------10-10-10-10-10-10-10-|-------------------------- 
 G1     The whole   world        will be different                             
 
-|-------------------------------------------------|-------------------------- 
-|--8-----8-11--------8--------8--8--8--8--8--8--8-|-------------------------- 
-|--9-----9--9-------10-------10-10-10-10-10-10-10-|-------------------------- 
-|-10----10-10-------10-------10-10-10-10-10-10-10-|-------------------------- 
-|-------------------------------------------------|-------------------------- 
-|-------------------------------------------------|-------------------------- 
 G2                                                                            
 
-|-13-13-13-13-13-13-13-13-13-13-13-13-13-13-13-13-|-------------------------- 
-|-13-13-13-13-13-13-13-13-13-13-13-13-13-13-13-13-|-------------------------- 
-|-------------------------------------------------|-------------------------- 
-|-------------------------------------------------|-------------------------- 
-|-------------------------------------------------|-------------------------- 
-|-------------------------------------------------|-------------------------- 
 G3                                                                            
 
-|--------------------10-------10-10-10-10-10-10-10-|------------------------- 
-|--10-----10-13------10-------10-10-10-10-10-10-10-|------------------------- 
-|--10-----10-10------11-------11-11-11-11-11-11-11-|------------------------- 
-|--10-----10-10------10-------10-10-10-10-10-10-10-|------------------------- 
-|--10-----10-10------10-------10-10-10-10-10-10-10-|------------------------- 
-|--10-----10-10------10-------10-10-10-10-10-10-10-|------------------------- 
 G1 Soon,  the whole  world      will be reliev-ed                             
 
-|--------------------------------------------------|------------------------- 
-|---8-----8-11--------8--------8--8--8--8--8--8--8-|------------------------- 
-|---9-----9--9-------10-------10-10-10-10-10-10-10-|------------------------- 
-|--10----10-10-------10-------10-10-10-10-10-10-10-|------------------------- 
-|--------------------------------------------------|------------------------- 
-|--------------------------------------------------|------------------------- 
 G2                                                                            
 
-|--13-13-13-13-13-13-13-13-13-13-13-13-13-13-13-13-|------------------------- 
-|--13-13-13-13-13-13-13-13-13-13-13-13-13-13-13-13-|------------------------- 
-|--------------------------------------------------|------------------------- 
-|--------------------------------------------------|------------------------- 
-|--------------------------------------------------|------------------------- 
-|--------------------------------------------------|------------------------- 
 G3                                                                            
 
-|-------------------10-------10-10-10-10-10-10-10-|-------------------------- 
-|-10----10-13-------10-------10-10-10-10-10-10-10-|-------------------------- 
-|-10----10-10-------11-------11-11-11-11-11-11-11-|-------------------------- 
-|-10----10-10-------10-------10-10-10-10-10-10-10-|-------------------------- 
-|-10----10-10-------10-------10-10-10-10-10-10-10-|-------------------------- 
-|-10----10-10-------10-------10-10-10-10-10-10-10-|-------------------------- 
 G1     The whole   world        will be different                             
 
-|-------------------------------------------------|-------------------------- 
-|--8-----8-11--------8--------8--8--8--8--8--8--8-|-------------------------- 
-|--9-----9--9-------10-------10-10-10-10-10-10-10-|-------------------------- 
-|-10----10-10-------10-------10-10-10-10-10-10-10-|-------------------------- 
-|-------------------------------------------------|-------------------------- 
-|-------------------------------------------------|-------------------------- 
 G2                                                                            
 
-|-13-13-13-13-13-13-13-13-13-13-13-13-13-13-13-13-|-------------------------- 
-|-13-13-13-13-13-13-13-13-13-13-13-13-13-13-13-13-|-------------------------- 
-|-------------------------------------------------|-------------------------- 
-|-------------------------------------------------|-------------------------- 
-|-------------------------------------------------|-------------------------- 
-|-------------------------------------------------|-------------------------- 
 G3                                                                            
 
-|-------------------10-------10-10-10-10-10-10-10-|-------------------------- 
-|-10-----10-13------10-------10-10-10-10-10-10-10-|-------------------------- 
-|-10-----10-10------11-------11-11-11-11-11-11-11-|-------------------------- 
-|-10-----10-10------10-------10-10-10-10-10-10-10-|-------------------------- 
-|-10-----10-10------10-------10-10-10-10-10-10-10-|-------------------------- 
-|-10-----10-10------10-------10-10-10-10-10-10-10-|-------------------------- 
 G1   Soon              soon                                                   
 
-|-------------------------------------------------|-------------------------- 
-|--8-----8-11--------8--------8--8--8--8--8--8--8-|-------------------------- 
-|--9-----9--9-------10-------10-10-10-10-10-10-10-|-------------------------- 
-|-10----10-10-------10-------10-10-10-10-10-10-10-|-------------------------- 
-|-------------------------------------------------|-------------------------- 
-|-------------------------------------------------|-------------------------- 
 G2                                                                            
 
-|-13-13-13-13-13-13-13-13-13-13-13-13-13-13-13-13-|-------------------------- 
-|-13-13-13-13-13-13-13-13-13-13-13-13-13-13-13-13-|-------------------------- 
-|-------------------------------------------------|-------------------------- 
-|-------------------------------------------------|-------------------------- 
-|-------------------------------------------------|-------------------------- 
-|-------------------------------------------------|-------------------------- 
 G3                                                                            
 
-|--------------------------------------------------|------------------------- 
-|-10--10--10--9--9--9--8-----8--9--10--8--10--0----|------------------------- 
-|-10--10--10--9--9--9--8-----8--9--10--8--10--0----|------------------------- 
-|-10--10--10--9--9--9--8-----8--9--10--8--10--0----|------------------------- 
-|-10--10--10--9--9--9--8-----8--9--10--8--10--0----|------------------------- 
-|-10--10--10--9--9--9--8-----8--9--10--8--10--0----|------------------------- 
 G1                                                                            
 
-|--------------------------------------------------|------------------------- 
-|--------------------------------------------------|------------------------- 
-|--------------------------------------------------|------------------------- 
-|--------------------------------------------------|------------------------- 
-|--------------------------------------6-----------|------------------------- 
-|--8---8---8--7--7--7--6-----6--7---8------8--0--0-|------------------------- 
 G2 (with wah)                                                                 
 
-|------------------------------------------------|--------------------------- 
-|--10--10--10--9--9--9--8-----8--8---8--8--8--8--|--------------------------- 
-|--10--10--10--9--9--9--8-----8--8---8--8--8--8--|--------------------------- 
-|--10--10--10--9--9--9--8-----8--8---8--8--8--8--|--------------------------- 
-|--10--10--10--9--9--9--8-----8--8---8--8--8--8--|--------------------------- 
-|--10--10--10--9--9--9--8-----8--8---8--8--8--8--|--------------------------- 
 G1                                                                            
 
-|------------------------------------------------|--------------------------- 
-|------------------------------------------------|--------------------------- 
-|------------------------------------------------|--------------------------- 
-|------------------------------------------------|--------------------------- 
-|------------------------------------------------|--------------------------- 
-|---8---8---8--7--7--7--6------------------------|--------------------------- 
 G2                                                                            
 
-|--------------------------------------------------|------------------------- 
-|-10--10--10--9--9--9--8-----8--9--10--8--10--0----|------------------------- 
-|-10--10--10--9--9--9--8-----8--9--10--8--10--0----|------------------------- 
-|-10--10--10--9--9--9--8-----8--9--10--8--10--0----|------------------------- 
-|-10--10--10--9--9--9--8-----8--9--10--8--10--0----|------------------------- 
-|-10--10--10--9--9--9--8-----8--9--10--8--10--0----|------------------------- 
 G1                                                                            
 
-|--------------------------------------------------|------------------------- 
-|--------------------------------------------------|------------------------- 
-|--------------------------------------------------|------------------------- 
-|--------------------------------------------------|------------------------- 
-|--------------------------------------6-----------|------------------------- 
-|--8---8---8--7--7--7--6-----6--7---8------8--0--0-|------------------------- 
 G2                                                                            
 
-|----------------------------------------------||---------------------------- 
-|--10--10--10--9--9--9--8--\-------------------||---------------------------- 
-|--10--10--10--9--9--9--8--\-------------------||---------------------------- 
-|--10--10--10--9--9--9--8--\-------------------||---------------------------- 
-|--10--10--10--9--9--9--8--\-------------------||---------------------------- 
-|--10--10--10--9--9--9--8--\-------------------||---------------------------- 
 G1                                                                            
 
-|----------------------------------------------||---------------------------- 
-|----------------------------------------------||---------------------------- 
-|----------------------------------------------||---------------------------- 
-|----------------------------------------------||---------------------------- 
-|----------------------------------------------||---------------------------- 
-|---8---8---8--7--7--7--6-\--------------------||---------------------------- 
 G2                                                                            
 
 
 

	  

Search Paypal
auto scroll beats size up size down change color hide chords drawings
tab show chords e-chords YouTube Clip e-chords hide all tabs e-chords go to top tab