Metallica

Whiskey in the jar Bass Tab

Metallica

Difficulty: AdvancedAdvanced

by eduardo%5Flyvio

tuner correct add songbook print version text version save to e-mail
chordsukuleleukulelecavacokeyboardtabbassdrummharmonicsflute Guitar Pro
close

there isn't a video lesson for this song

chords

Whiskey in the jar

Year: 1988 - Album: Garage, Inc.

  		G||------------------|--------------------------|--------------------------|  
D||------------------|--------------------------|--------------------------|  
A||------------------|--------------------------|--------------------------|  
E||------------------|--0--0--0--0--0--0--0--0--|--0--0--0--0--0--0--0--2--|  
 
 
                                                                                  
--------------------------|-------------------------|--------------------------|  
--------------------------|-------------------------|--------------------------|  
--------------------------|-------------------------|--------------------------|  
--3--3--3--3--3--3--3--3--|--3--3--3--3--3----2p-0--|--0--0--0--0--0--0--0--0--|  
 
 
                                                        
--------------------------|--------------------------|  
--------------------------|--------------------------|  
--------------------------|--------------------------|  
--0--0--0--0--0--0--0--2--|--3--3--3--3--3--3--3--3--|  
 
 
                                                                                 
--------------------------|------------------------|--------------------------|  
--------------------------|------------------------|--------------------------|  
--------------------------|------------------------|-----------------------5--|  
--3--3--3--3--3--3--3--0--|--3--3----3--3--3----3--|--3--3----3--3--3--5/7----|  
 
 
                                                                             
------------------------|------------------------|------------------------|  
------------------------|------------------------|------------------------|  
--7--7----7--7--7----7--|--7--7----7--7--7----5--|--3--3----3--3--3----3--|  
------------------------|------------------------|------------------------|  
 
 
                                                                              
------------------------|------------------------|-------------------------|  
------------------------|------------------------|-------------------------|  
--3--3----3--3--3-------|------------------------|-------------------------|  
---------------------5--|--3--3----3--3--3----3--|--3--3----3--3--3--2--2--|  
 
 
                                                                               
------------------------|--------------------------|------------------------|  
------------------------|--------------------------|------------------------|  
------------------------|-----------------------5--|--7--7----7--7--7----7--|  
--3--3----3--3--3----3--|--3--3----3--3--3--5/7----|------------------------|  
 
 
                                                                             
------------------------|------------------------|------------------------|  
------------------------|------------------------|------------------------|  
--7--7----7--7--7----5--|--3--3----3--3--3----3--|--3--3----3--3--3-------|  
------------------------|------------------------|---------------------5--|  
 
 
                                                                              
------------------------|-----------------------|--------------------------|  
------------------------|-----------------------|--------------------------|  
------------------------|-----------------------|--------------------------|  
--3--3----3--3--3----3--|--3--3----3--5----2----|--0--0--0--0--0--0--0--0--|  
 
 
                                                                                  
--------------------------|--------------------------|-------------------------|  
--------------------------|--------------------------|-------------------------|  
--------------------------|--------------------------|-------------------------|  
--0--0--0--0--0--0--0--2--|--3--3--3--3--3--3--3--3--|--3--3--3--3--3----2p-0--|  
 
 
                                                        
--------------------------|--------------------------|  
--------------------------|--------------------------|  
--------------------------|--------------------------|  
--0--0--0--0--0--0--0--0--|--0--0--0--0--0--0--0--2--|  
 
 
                                                                                 
--------------------------|--------------------------|------------------------|  
--------------------------|--------------------------|------------------------|  
--------------------------|--------------------------|------------------------|  
--3--3--3--3--3--3--3--3--|--3--3--3--3--3--3--3--0--|--3--3----3--3--3----3--|  
 
 
                                                                               
--------------------------|------------------------|------------------------|  
--------------------------|------------------------|------------------------|  
-----------------------5--|--7--7----7--7--7----7--|--7--7----7--7--7----5--|  
--3--3----3--3--3--5/7----|------------------------|------------------------|  
 
 
                                                                             
------------------------|------------------------|------------------------|  
------------------------|------------------------|------------------------|  
--3--3----3--3--3----3--|--3--3----3--3--3-------|------------------------|  
------------------------|---------------------5--|--3--3----3--3--3----3--|  
 
 
                                                                                
-------------------------|------------------------|--------------------------|  
-------------------------|------------------------|--------------------------|  
-------------------------|------------------------|-----------------------5--|  
--3--3----3--3--3--2--2--|--3--3----3--3--3----3--|--3--3----3--3--3--5/7----|  
 
 
                                                                             
------------------------|------------------------|------------------------|  
------------------------|------------------------|------------------------|  
--7--7----7--7--7----7--|--7--7----7--7--7----5--|--3--3----3--3--3----3--|  
------------------------|------------------------|------------------------|  
 
 
                                                                              
------------------------|------------------------|-------------------------|  
------------------------|------------------------|-------------------------|  
--3--3----3--3--3-------|------------------------|-------------------------|  
---------------------5--|--3--3----3--3--3----3--|--3--3----3--3--5--7--5--|  
 
 
                                                                                 
-------------------------|--------------------------|-------------------------|  
-------------------------|--------------------------|-------------------------|  
--5----5--5--5--5--5--5--|--5--5--5--5--5--5--7--5--|--3----3--3--3--3--3--3--|  
-------------------------|--------------------------|-------------------------|  
 
 
                                                                 
---------------------------|----------------------------------|  
------------------------8--|--10--10--10--10--10--10--10--10--|  
--3--3--3--3--3--8--10-----|----------------------------------|  
---------------------------|----------------------------------|  
 
 
                                                            
------------------------------|--------------------------|  
--10--10--10--8---------------|--------------------------|  
-----------------10--8--------|--------------------------|  
------------------------10\---|--3--3--3--3--3--3--3--3--|  
 
 
                                                                                 
------------------------|--------------------------|--------------------------|  
------------------------|--------------------------|--------------------------|  
------------------------|--------------------------|--------------------------|  
--3--3--3--0--3----2----|--0--0--0--0--0--0--0--0--|--0--0--0--0--0--0--0--2--|  
 
 
                                                                                  
--------------------------|-------------------------|--------------------------|  
--------------------------|-------------------------|--------------------------|  
--------------------------|-------------------------|--------------------------|  
--3--3--3--3--3--3--3--3--|--3--3--3--3--3----2p-0--|--0--0--0--0--0--0--0--0--|  
 
 
                                                        
--------------------------|--------------------------|  
--------------------------|--------------------------|  
--------------------------|--------------------------|  
--0--0--0--0--0--0--0--2--|--3--3--3--3--3--3--3--3--|  
 
 
                                                                                 
--------------------------|------------------------|--------------------------|  
--------------------------|------------------------|--------------------------|  
--------------------------|------------------------|-----------------------5--|  
--3--3--3--3--3--3--3--0--|--3--3----3--3--3----3--|--3--3----3--3--3--5/7----|  
 
 
                                                                             
------------------------|------------------------|------------------------|  
------------------------|------------------------|------------------------|  
--7--7----7--7--7----7--|--7--7----7--7--7----5--|--3--3----3--3--3----3--|  
------------------------|------------------------|------------------------|  
 
 
                                                                              
------------------------|------------------------|-------------------------|  
------------------------|------------------------|-------------------------|  
--3--3----3--3--3-------|------------------------|-------------------------|  
---------------------5--|--3--3----3--3--3----3--|--3--3----3--3--3--2--2--|  
 
 
                                                                               
------------------------|--------------------------|------------------------|  
------------------------|--------------------------|------------------------|  
------------------------|-----------------------5--|--7--7----7--7--7----7--|  
--3--3----3--3--3----3--|--3--3----3--3--3--5/7----|------------------------|  
 
 
                                                                             
------------------------|------------------------|------------------------|  
------------------------|------------------------|------------------------|  
--7--7----7--7--7----5--|--3--3----3--3--3----3--|--3--3----3--3--3-------|  
------------------------|------------------------|---------------------5--|  
 
 
                                                                               
------------------------|-------------------------|-------------------------|  
------------------------|-------------------------|-------------------------|  
------------------------|-------------------------|--5----5--5--5--5--5--5--|  
--3--3----3--3--3----3--|--3--3----3--3/-5--7--5--|-------------------------|  
 
 
                                                       
--------------------------|-------------------------|  
--------------------------|-------------------------|  
--5--5--5--5--5--5--7--5--|--3----3--3--3--3--3--3--|  
--------------------------|-------------------------|  
 
 
                                                                 
---------------------------|----------------------------------|  
------------------------8--|--10--10--10--10--10--10--10--10--|  
--3--3--3--3--3--8--10-----|----------------------------------|  
---------------------------|----------------------------------|  
 
 
                                                            
------------------------------|--------------------------|  
--10--10--10--8---------------|--------------------------|  
-----------------10--8--------|--------------------------|  
------------------------10\---|--3--3--3--3--3--3--3--3--|  
 
 
                                                                                 
------------------------|--------------------------|--------------------------|  
------------------------|--------------------------|--------------------------|  
------------------------|--------------------------|--------------------------|  
--3--3--3--3--3----2----|--0--0--0--0--0--0--0--0--|--0--0--0--0--0--0--0--2--|  
 
 
                                                        
--------------------------|--------------------------|  
--------------------------|--------------------------|  
--------------------------|--------------------------|  
--3--3--3--3--3--3--3--3--|--3--3--3--3--3--3--3--3--|  
 
 
                                                        
--------------------------|--------------------------|  
--------------------------|--------------------------|  
--------------------------|-----------------------5--|  
--0--0--0--0--0--0--0--0--|--0--0--0--0--0--0--0-----|  
 
 
                                                             
--------------------------|-------------------------------|  
--------------------------|-------------------------------|  
--3--3--3--3--3--3--3--3--|--3--3-3-3-3-3-3-3-3-3-3-3--3--|  
--------------------------|-------------------------------|  
 
 
                                                                              
------------------------|-------------------------|------------------------|  
------------------------|-------------------------|------------------------|  
------------------------|-------------------------|------------------------|  
--3--3----3--3--3----3--|--3--3----3--3--3/-10\---|--3--3----3--3--3----3--|  
 
 
                                                        
--------------------------|--------------------------|  
--------------------------|--------------------------|  
-----------------------5--|--7--7--7--7--7--7--7--7--|  
--3--3----3--3--3--5/7----|--------------------------|  
 
 
                                                        
--------------------------|--------------------------|  
--------------------------|--------------------------|  
--7--7--7--7--7--7--7--5--|--3--3--3--3--3--3--3--3--|  
--------------------------|--------------------------|  
 
 
                                                           
-------------------------------|------------------------|  
-------------------------------|------------------------|  
--3--3-3-3-3-3-3-3-3-3-3-3--5--|---------5----------5-5-|  
-------------------------------|--3---------3----3------|  
 
 
                                                                                  
--------------------------|-------------------------|--------------------------|  
---------5-------------5--|-------------------------|-----------------5--5-----|  
------------5----5--5-----|--5----5--5--5--5--5--5--|--5--5--5--5--5--------5--|  
--3--3-3------------------|-------------------------|--------------------------|  
 
 
                                                                               
------------------------|-------------------------|-------------------------|  
------------------------|-------------------------|-------------------------|  
--3----3--3----3--5--3--|--3----3--3--3--3--2--3--|--3--3--3--3----3--3--3--|  
------------------------|-------------------------|-------------------------|  
 
 
                                                                                  
--------------------------|-------------------------|--------------------------|  
--------------------------|-------------------------|--------------------------|  
--3--3--3--0--3--3--3--5--|-------------------------|--------------------------|  
--------------------------|--3----3--3--3--3--3--3--|--3--3--0-0-2-2-3----2----|  
 
 
                                                        
--------------------------|--------------------------|  
--------------------------|--------------------------|  
--------------------------|--------------------------|  
--0--0--0--0--0--0--0--0--|--0--0--0--0--0--0--0--2--|  
 
 
                                                                                  
--------------------------|-------------------------|--------------------------|  
--------------------------|-------------------------|--------------------------|  
--------------------------|-------------------------|--------------------------|  
--3--3--3--3--3--3--3--3--|--3--3--3--3--3\-2--1----|--0--0--0--0--0--0--0--0--|  
 
 
                                                                                  
--------------------------|--------------------------|-------------------------|  
--------------------------|--------------------------|-------------------------|  
--------------------------|--------------------------|-------------------------|  
--0--0--0--0--0--0--0--2--|--3--3--3--3--3--3--3--3--|--3--3--3----3--3--0--2--|  
 
 
                                                                     
---------------------|---------------------|----------------------|  
---------------------|---------------------|----------------------|  
---------------------|------------------5--|--7-------------------|  
--3--------3------3--|--------------5-7----|---------0--0------0--|  
 
 
                                                                        
-----------------------|----------------------|----------------------|  
-----------------------|----------------------|----------------------|  
-----------------7--5--|--3--------3----3--0--|--3----------0--3--0--|  
--0------0--0----------|----------------------|----------------------|  
 
 
                                                                      
---------------------|---------------------|-----------------------|  
---------5-----------|----------5----------|-----------------------|  
---------------------|---------------------|-----------------------|  
--3---------------3--|---------------0--2--|--3------3--3--3--3----|  
 
 
                                                                                
--------------------------|------------------------|-------------------------|  
--------------------------|------------------------|-------------------------|  
-----------------------5--|--7------7--7--7--7--7--|--7--7--7--7----7--5--2--|  
--3--3--3--3----3--5/7----|------------------------|-------------------------|  
 
 
                                                                              
----------------------|-------------------------|--------------------------|  
----------------------|-------------------------|--------------------------|  
--3------3--3------3--|--3----3--3--2--3--2--0--|--------------------------|  
----------------------|-------------------------|--3--3--3--3--3--3--3--3--|  
 
 
                                                              
--------------------------|--------------------------------|  
--------------------------|--------------------------------|  
--------------------------|--17----17--17--17--17--17--17--|  
--3--3--3--3--3/-5--7--5--|--------------------------------|  
 
 
                                                                        
----------------------------------|----------------------------------|  
----------------------------------|----------------------------------|  
--17--17--17--17--17--16--16--15--|--13h15---15--15--15--15--15--15--|  
----------------------------------|----------------------------------|  
 
 
                                                                        
----------------------------------|----------------------------------|  
----------------------------------|----------------------------------|  
--15--15--15--15--15--15--15--15--|--15--15--15--15--15--15--15--15--|  
----------------------------------|----------------------------------|  
 
 
                                                              
--------------------------------|--------------------------|  
--------------------------------|--------------------------|  
--15--15--15--15--15--15--------|--------------------------|  
--------------------------15\---|--3--3--3--3--3--3--3--3--|  
 
 
                                                                                 
------------------------|--------------------------|--------------------------|  
------------------------|--------------------------|--------------------------|  
------------------------|--------------------------|--------------------------|  
--3--3--3--3--3----2----|--0--0--0--0--0--0--0--0--|--0--0--0--0--0--0--0--2--|  
 
 
                                                                                  
--------------------------|-------------------------|--------------------------|  
--------------------------|-------------------------|--------------------------|  
--------------------------|-------------------------|--------------------------|  
--3--3--3--3--3--3--3--3--|--3--3--3--3--3----2p-0--|--0--0--0--0--0--0--0--0--|  
 
 
                                                        
--------------------------|--------------------------|  
--------------------------|--------------------------|  
--------------------------|--------------------------|  
--0--0--0--0--0--0--0--0--|--3--3--3--3--3--3--3--3--|  
 
 
                                                          
--------------------------||---------------------------|  
--------------------------||*--------------------------|  
--------------------------||*--------------------------|  
--3--3--3--3--3--3--3--0--||---3--3--3--3--3--3--3--3--|  
 
 
                           2x                             
---------------------------||--------------------------|  
--------------------------*||--------------------------|  
--------------------------*||--------------------------|  
--3--3--3--3--3--3--0--2---||--3--3--3--3--3--3--3--3--|  
 
 

	  

auto scroll beats size up size down change color hide chords drawings
tab show chords e-chords YouTube Clip e-chords hide all tabs e-chords go to top tab

share with facebook

Search Paypal