Metallica

home > Metallica

The Unforgiven Bass Tab

Metallica

Difficulty: BeginnerBeginner

by eduardo%5Flyvio

tuner correct add songbook print version text version save to e-mail
chordsukulelecavacokeyboardtabbassdrummharmonicsflute Guitar Pro
chords

The Unforgiven

Year: 1991 - Album: Metallica

  		Depois do primeiro intro , o baixo entra com esse: 
|-------------------------------------------------------| 
|-------------------------------------------------------| 
|-0-2-3------------0h2-0--0-2-3-----------0h2-0-2--0--0-| 
|-------3--3---3-0---------------3--3-0-0---------------| 
 
|-----------------------------------------------------------------------| 
|-----------------------------------------------------------------------| 
|-0-0-3-7-7-7-7-7-5-5-5-5-0-0-0-0-0-0-0---7-7-7-7-5-5-5-5-5-0-0-0-0-0---| 
|---------------------------------------8-----------------------------3-| 
 
|-----------------------------------------------------------------------| 
|-----------------------------------------------------------------------| 
|-0-0-3-7-7-7-7-7-5-5-5-5-0-0-0-0-0-0-0--3-7-7-7-7-7-5-5-5-5-0-0-0-0----| 
|--------------------------------------------------------------------0--| 
 
|---------------------------------------------------------------------------------| 
|-------9-0-----7-0-----5-0-------------------------------9-0-----7-0-----5-0-----| 
|-0-0-0-----0-0-----0-0-----0-0--3--3h5-3-0---------0-0-0-----0-0-----0-0-----0-0-| 
|-------------------------------------------3--3-3--------------------------------| 
 
|------------------|---|-------------------------------------------------------------| 
|------------------|--2|--------5--------------------5----------------------5--------| 
|-3--3h5-3-0-------|---|0-2-3---------0h2-0-0-2-3-3---------0h2-0-2-0-2-3--------0h2-| 
|------------3--3-3|-0-|-------3---3-0---------------3---3-0--------------3---3-0----| 
 
|----------------------------|----------------------------------| 
|--------------5-------------|----------------------------------| 
|--0-0-2-3-3---------0h2-0-0-|0-0-3-7-7-7-7-7-5-5-5-5-5-0-0-0-0-| 
|------------3---3-0---------|----------------------------------| 
 
|--------------------------------------------------------------------------| 
|--------------------------------------------------------------------------| 
|-0-0-3-7-7-7-7-7-5-5-5-5-5-0-0-0-0---0-0-3-7-7-7-7-7-5-5-5-5-5-0-0-0-0-0--| 
|-----------------------------------3--------------------------------------| 
 
|-----------------------------|---------------------------------------------------| 
|-----------------------------|-------0-9-----0-7-----0-5-------------------------| 
|-0-0-3-7-7-7-7-7-5-5-5-5-5-0-|-0-0-0-----0-0-----0-0-----0-0--3--3h5-3-0---------| 
|-----------------------------|-------------------------------------------3-3-3---| 
 
|------------------------------------------------|---|------------------| 
|-------0-9-----0-7-----0-5----------------------|--2|-------5----------| 
|-0-0-0-----0-0-----0-0-----0-0--3--3h5-3-0------|---|0-2-3---------0h2-|x1 
|-------------------------------------------3-3-3|0--|-----3---3-0------| 
 
                                               antes do solo,vem essa parte com a corda 
                                               Solta com o tempo bem lento 
|---------------------|-----------------------|---------------------------------------| 
|-----------5---------|-------------5---------|---------------------------------------| 
|0-2-0-2-3--------0h2-|-0-0-2-3-3---------0h2-|-0-0-0-0-0-0-0-0-0-0------5-5-5-5-5-5-5| 
|----------3--3-0-----|-----------3---3-0-----|---------------------------------------| 
 
|-----------------------------------------------------------------------| 
|-----------------------------------------------------------------------| 
|-0-0-3-7-7-7-7-7-5-5-5-5-0-0-0-0-0-0-0---7-7-7-7-5-5-5-5-5-0-0-0-0-0---| 
|---------------------------------------------------------------------3-| 
 
|-------------------------------------|-------------------------| 
|-------------------------------------|-------------------------| 
|-0-0-3-7-7-7-7-7-5-5-5-5-0-0---0--0--|0-0-3-7-7-7-7-7-5-5-5-5--| 
|-----------------------------3------3|------------------------0| 
 
|---------------------------------------------|------------0-2-5-2-0--------| 
|-------0-9-----0-7-----0-5-------------------|----------2-----------2-0----| 
|-0-0-0-----0-0-----0-0-----0-0--3--3h5-3-0---|0-0-0-0-3-----------------2-0| 
|-------------------------------------------3-|-----------------------------| 
 
|----------------|-----|-----------------------|----------------------|----------------------| 
|----------------|-----|-------------5---------|------------5---------|------------5---------| 
|3--3h5-3-0------|-----|--0-2-3-3----------0h2-|-0-0-2-3-3--------0h2-|-0-0-2-3-3--------0h2-| 
|-----------3-3-3|-0-0-|-----------3---3-0-----|-----------3--3-0-----|-----------3--3-0-----| 
 
|-------------------------|---------5-----|---------------|-----------------| 
|------------5------------|-------------0-|---------------|---------------0-| 
|-0-0-2-3-3--------2-----2|-0--0-2-3--3---|-------0h2-0h2-|-0-0-0-2-3-3-3---| 
|-----------3--3-0---3h5--|---------------|-3-3-0---------|-----------------| 
 
|-------------------|-------------|------------------|-------------|-0-0-0-0-0-| 
|---5---------------|-----------0-|----5-------------|---------0-2-|-----------| 
|-----------0h2-0-2-|-0-0-2-3-3---|------------0-0h2-|-0-0-2-3-----|-----------| 
|-3---3-3-0---------|-------------|3-3---3-0-0-------|-------------|-----------| 
 
|---------------------|-------------------|-0-0-0-0-2-0------4-4-4-|-2-2-2-0---------------| 
|---------------------|---------------0-2-|-------------2--2-------|---------2-0-----------| 
|-------------0h2-0h2-|-0-0-0-0-2-3-3-----|------------------------|-------------3-3-3-3-3-| 
|-3-2-0-0-0-0---------|-------------------|------------------------|-----------------------| 
 
|---------------------------|---2-2---------|----------------------|-----------------| 
|-------5-------------------|-------------0-|--5-5-5-2-----2-------|---------------0-| 
|-------------------0h2-0h2-|-0-----2-3-3---|----------------2-0-2-|-0-0-0-2-3-3-3---| 
|-3-3-3---3-2-0-0-0---------|---------------|-3--------0-0---------|-----------------| 
 
|-----------------------|---2-2-0--------------|-0-0-2-0-----------| 
|-5-----5-5-4-2---------|---------2-0------0-2-|---------2-2-0-----| 
|---------------0h2-0h2-|-0-----------3--3-----|---------------0-2-| 
|---3-3-----------------|----------------------|-------------------| 
 
Siga tudo isso .....A música em sí é fácil (procurei simplifica-la algumas vezes) 
Mais o tempo da música é um pouco dificil e exige bastante treino 
 
 

	  

Search Paypal
auto scroll beats size up size down change color hide chords drawings
tab show chords e-chords YouTube Clip e-chords hide all tabs e-chords go to top tab