Metallica

The Unforgiven Tab

Metallica

Difficulty: ExpertExpert

by Baquit

tuner correct add songbook print version text version save to e-mail
chordsukuleleukulelecavacokeyboardtabbassdrummharmonicsflute Guitar Pro
close
the-unforgiven-by-metallica

there is a video lesson for this song

chords

The Unforgiven

Year: 1991 - Album: Metallica

  		Tab:
e---------------------------
B--0-0-----0-----0-----1----
G------2-----2-----2-----2--  Repeat
D--------2-----2-----2-----2
A--0------------------------
E---------------------------
accoustic intro

e------------------------
B------------------------
G--2-4-5--5-4-2--2-4-5--5-2
D------------------------
A------------------------
E------------------------
still clean intro

e-----------------------------------------------------------
B--------------------------------------5-5-5-3--------------
G--2-4-5--5--5-5-4---4----2-4-2--2-4-5---------4-4-0-1/2-4-2
D--0---------------5---2--2------2--------------------------
A-----------------------------------------------------------
E-----------------------------------------------------------
chorus/intro

G----------------------12-12-11-11------
D--12-12-10-9-12p9-----0--0--0--0--10-10 twice
A--0--0--0--0-0--0-10--------------0--0-
E------------------0--------------------
pm......................................
crunch verse

G-------------------------------------------- twice --
D--10p0-----9p0-----7p0-----5p0-----5-------5 then  -2
A-------0-0-----0-0-----0-0-----0-0-3-3h5p3-5       -2
E-------------------------------------------3       -0
       pm..     ...     ...     ...
"falling" riff                         full
                                       ^  ^
G-------------------2-2-2-2----       -----
D--2-2-2-5----------0-0-0-0-2-2 twice -4--4 play twice then to
A--0-0-0-3-2-2--------------0-0 then  ----- falling riff
E----------0-0--0-0------------       -----
               pm..
solo riff
______________________________________________________________________

pre-solo (clean):
e-------------------------0-0-0-0-0-0-0-------------------------
B-------------------------0-1/3/531/3--8/108-7--5-3-----3----
G----4-5-7-4h5p4---4---------------------7/9-7-7------5-4---4--
D--7-------------5---5-7---------------------------------------5
A---------------------------------------------------------------
E---------------------------------------------------------------

e---------------------
B---------------------
G----------------5----
D--------------5---5-7
A------3-5/6/7--------
E--3-5----------------

e-------------------------7-----10------12-------14-------15----17
B--8-8p7---7-8---7-8-10-8---8-8----8/10----10/12----12/14----14---
G--------9-----9--------------------------------------------------
D-----------------------------------------------------------------
A-----------------------------------------------------------------
E-----------------------------------------------------------------


Solo (distorted)
   ^  ^      ^
e-----------------------------------
B--7--7-----------------------------
G--7--7-5---------------------------
D---------7~~7-5--------------------
A----------------7-5-3-5-3-------0-3
E--------------------------5-3-0----
                    pm..............

                                   AH       AH        AH
e----------------------------------10--------8--------10---
B-------------------7---7-8-7-8-10----10--10---10--10----10
G-----5-7-5-7/9-7-9---9------------------------------------
D--/7-----------------------
	  

auto scroll beats size up size down change color hide chords drawings
tab show chords e-chords YouTube Clip e-chords hide all tabs e-chords go to top tab

share with facebook

Search Paypal