The Pogues

Whiskey In The Jar

The Pogues

bass Easy easy

by  JONNY SUI«SA

save to print version add songbook text version e-mail correct tuner
chordsukulelecavacokeyboardtabbassdrumsharmonicaflute Guitar Pro
close

there isn't a video lesson for this song

chords

Whiskey In The Jar

	  		INTRO 
G|---------------| 
D|---------------| 
A|---------------| 
E|-----------024-| 

VERSE 1 
As I was going over... 
G|----------------------------------|----------------------------------| 
D|-------------------7---7----------|-------------------7---7----------| 
A|---7---7---4---4-5---5-----7---7--|---7---7---4---4-5---5-----7---70-| 
E|-5---5--52---2--2--------5---5--5-|-5---5---2---2-----------5---5----| 

Chorus 1 
G|--------------------------------------| 
D|---9---9-----------7---7--------------| 
A|-7---7--7--7---7-5---5-----7---7------| 
E|---------5---5--5--------5---5---5024-| 

VERSE 2 
I counted all his money... 
G|----------------------------------|----------------------------------| 
D|-------------------7---7----------|-------------------7---7----------| 
A|---7---7---4---4-5---5-----7------|---7---7---4---4-5---5-----7---70-| 
E|-5---5---2---2-----------5---5024-|-5---5---2---2-----------5---5----| 

Chorus 1 

VERSE 3 
And I went up to my chamber... 
G|----------------------------------|----------------------------------| 
D|-------------------7---7----------|-------------------7---7----------| 
A|---7---7---4---4-5---5-----7---7--|---7---7---4---4-5---5-----7---70-| 
E|-5---5---2---2-----------5---5----|-5---5---2---2-----------5---5----| 

Chorus 1 

VERSE 4 
't was early in the morning... 
G|----------------------------------|----------------------------------| 
D|-------------------7---7----------|-------------------7---7----------| 
A|---7---7---4---4-5---5-----7---7--|---7---7---4---4-5---5-----7---70-| 
E|-5---5---2---2-----------5---5----|-5---5---2---2-----------5---5----| 

Chorus 2 
G|----------------------------------| 
D|---9---9-----------7---7----------| 
A|-7---7--7--7---7-5---5-----7------| 
E|---------5---5--5--------5---5024-| 

SOLO 
G|----------------------------------|----------------------------------| 
D|-------------------7---7----------|-------------------7---7----------| 
A|---7---7---4---4-5---5--5--7------|---7---7---4---4-5---5--5--7------| 
E|-5---5--52---2--2--------5---5024-|-5---5--52---2--2--------5---5457-| 

G|--------------------------------------| 
D|---9---9-----------7---7--------------| 
A|-7---7--7--7---7-5---5-----7---7------| 
E|---------5---5--5--------5---5---5024-| 

VERSE 5 
And if anyone could aid me... 
G|----------------------------------|----------------------------------| 
D|-------------------7---7----------|-------------------7---7----------| 
A|---7---7---4---4-5---5-----7---7--|---7---7---4---4-5---5-----7---70-| 
E|-5---5--52---2-----------5---5----|-5---5--52---2-----------5---5----| 

Chorus 1 

VERSE 6 
There's some who take delight... 
G|----------------------------------|----------------------------------| 
D|-------------------7---7----------|----------------------------------| 
A|---7---7---4---4-5---5-----7---7--|---7---7---4---4-5---5------------| 
E|-5---5---2---2-----------5---5----|-5---5---2---2-----------5-5-5457-| 

Chorus 3 
G|----------------------------------|----------------------------------| 
D|---9---9-----------7---7----------|---9---9-----------7---7----------| 
A|-7---7--7--7---7-5---5-----7---70-|-7---7--7--7---7-5---5---77-5-----| 
E|---------5---5--5--------5---5----|---------5---5--5----------7--555~| 
		  

See also:

bass U2 - Beautiful Day(tab) bass U2 - Scarlet bass U2 - One Tree Hill bass U2 - With Or Without You bass U2 - Vertigo bass U2 - Discotheque
e-chords

Other versions:

bass Metallica - Whiskey in the jar bass The Pogues - Whiskey In The Jar
auto scroll beats size up size down change color hide chords drawings
tab show chords e-chords YouTube Clip e-chords hide all tabs e-chords go to top tab

share