Metallica

home > Metallica

Sweet Amber Bass Tab

Metallica

Difficulty: nolevelnolevel

by eduardo%5Flyvio

tuner correct add songbook print version text version save to e-mail
chordsukulelecavacokeyboardtabbassdrumsharmonicsflute Guitar Pro
chords

Sweet Amber

Year: 2003 - Album: St. Anger

  		This song is Kick ass it's so kool and the last person who did this  
was off in some areas (but close) 
 
intro:                           Verse/Main Riff: 
G|------------------------|   |-----------------------| 
D|------------------------|   |-------------1/3\1-----| 
A|---3-3-3-3-3-3-3-3-3-3--|   |-1---3--1h3------------| 
E|------------------------|   |-----------------------| 
 
preChorus:"she holds me hand"            "using what i want" 
G|-------------------|--------------|     |--------------------------| 
D|-------------------|--------------|     |--------------------------| 
A|-3~-------1~---5~--|--------------|     |-3-1-1-3-1-1-3-1-1-6-6-5--| 
E|-------------------|--4~----------|     |--------------------------| 
 |she holds my hand  |oh sweet amber| 
 
hard part of Chorus:"how sweet r u"     Intro of verse2:wait a while listen for 
                                                        the other guitar to do it 
G----------------------------------|    |------------------------| 
D----------------------------------|    |------------------------| 
A-3-3-3-3-5-6-3-3-5-1--------------|    |-/13-13-13-13-13-13-13--| 
E----------------------------------|    |------------------------| 
^play as many times as needed 
 
bridge 
G-----------------------------------------------| 
D-----------------------------------------------| 
A-3-1-1-1-3-1-1-1-6--3-5-3-3-3-5-3-3-3---8-6-3--| 
E-----------------------------------------------| 
 
 

	  

Search Paypal
auto scroll beats size up size down change color hide chords drawings
tab show chords e-chords YouTube Clip e-chords hide all tabs e-chords go to top tab