Metallica

home > Metallica

Sweet Amber Tab

Metallica

Difficulty: IntermediateIntermediate

tuner correct add songbook print version text version save to e-mail
chordsukulelecavacokeyboardtabbassdrumsharmonicsflute Guitar Pro
chords

Sweet Amber

Year: 2003 - Album: St. Anger

  		 
Dropped D and tuned down a step (Dropped C) 
 
Intro 1 (clean)                                  end on 
d-----------------------------------------------|------------ 
A-----------------------------------------------|------------ 
F--5/-7----5/-7--12^10---5/-7----5/-7--12^10--|-5/-7------- 
C--5/-7----5/-7--12^10---5/-7----5/-7--12^10--|-5/-7------- 
G-----------------------------------------------|------------ 
C-----------------------------------------------|------------ 
 
Intro 2 
d------------------------------------------------------------ 
A------------------------------------------------------------ 
F------------------------------------------------------------ 
C---------------------------------------53--3-3------------- 
G--x--x-x--x-3-4-5----------------0---------------3---------- 
C--x--x-x--x-0-----0m-0m-0m-0m-0m-0-0m------------0-0m-0m-0m- 
 
(continued) 
d------------------------------------------------------------ 
A------------------------------------------------------------ 
F------------------------------------------------------------ 
C-----------------------------------53--3-3----------------- 
G--------5----------------3/5----------------3--------------- 
C--0m-0m-0-0m-0m-0m-0m-0m-0---0m-0m----------0-0m-0m-0m-0m--- 
 
(continued) 
d------------------------------------------------------------ 
A------------------------------------------------------------ 
F------------------------------------------------------------ 
C-----------------------------53--3-3----------------------- 
G--5----------------3/5----------------3----------------5---- 
C--0-0m-0m-0m-0m-0m-0---0m-0m----------0-0m-0m-0m-0m-0m-0-0m- 
 
(continued) 
d------------------------------------------------------------ 
A------------------------------------------------------------ 
F------------------------------------------------------------ 
C------------------------------------------------------------ 
G------------------------------------------------------------ 
C--0m-0m-0m-0m-0m-0m-0m-0m-0m-0m-0m-0m-0m-0m-0m-0m-0m-0m-0m-- 
 
 
Verse A (Guitar 1)                           end on 
d-------------------------------------------|---------------- 
A-------------------------------------------|---------------- 
F-------------------------------------------|---------------- 
C----------------------------------53--3-3-|---------------- 
G--3/5-5----------------3/5----------------|---------------- 
C--0---0--0m-0m-0m-0m-0m-0---0m-0m----------|-0m-0m-0m-0m-0m- 
 
(end on continued) 
d------------------------------------------------------------ 
A------------------------------------------------------------ 
F------------------------------------------------------------ 
C------------------------------------------------------------ 
G------------------------------------------------------------ 
C--0m-0m-0m-0m-0m-0m-0m-0m-0m-0m-0m-0m-0m-0m-0m-------------- 
 
Verse B (Guitar 2) 
d------------------------------------------------------------ 
A------------------------------------------------------------ 
F------------------------------------------------------------ 
C------------------------------------------------------------ 
G--0m---0m-0m-------0m---0m-0m----0m----0m---0m-0m----------- 
C--0m---0m-0m-------0m---0m-0m----0m----0m---0m-0m----------- 
 
Verse C (Guitar 2) 
d------------------------------------------------------------ 
A------------------------------------------------------------ 
F------------------------1210-------------------------1210- 
C--10---12^------10/12----------10---12^------10/12---------- 
G------------------------------------------------------------ 
C------------------------------------------------------------ 
 
 
Pre-Chorus A (Guitar 1) 
d-----------------|------------------------------------------ 
A-----------------|------------------------------------------ 
F--------5--/--9--|------------------------------------------ 
C--0-----5--/--9--|--0-------0-------0--------3-3-3-3--2----- 
G--0-----3--/--7--|--0-0m-0m-0-0m-0m-0-0m-0m--3-3-3-3--2----- 
C--0--------------|--0-0m-0m-0-0m-0m-0-0m-0m--3-3-3-3--2----- 
 
Pre-Chorus B (Guitar 2) 
d-------10--------10----8-------12------------------------- 
A------------------------------------------------------------ 
F--7-7------7---7------5------9------------------------------ 
C------------------------------------------------------------ 
G------------------------------------------------------------ 
C------------------------------------------------------------ 
 
 
Chorus 
d-----------------------|------------------------------------ 
A-----------------------|------------------------------------ 
F-------10---9----------|------------------------------------ 
C--0----10---9---8---7--|------------3--5---------5^--0------ 
G--0-----8---7---8---7--|--0m-0m-0m--3--5--0m-0m--5^--0------ 
C--0-------------8---7--|--0m-0m-0m--3--5--0m-0m--5^--0------ 
 
 
Bridge 1A (Guitar 1, palm muted) 
d------------------------------------------------------------ 
A------------------------------------------------------------ 
F--7-------------7---------------7---------------10--7------- 
C--0-0-0-0-0-0-0-0-0-0-0-0-0-0-0-0-0-0-0-0-0-0-0--0--0------- 
G------------------------------------------------------------ 
C------------------------------------------------------------ 
 
(continued) 
d------------------------------------------------------------ 
A------------------------------------------------------------ 
F--9-------------9---------------9----------------9--9------- 
C--0-0-0-0-0-0-0-0-0-0-0-0-0-0-0-7-7-7-7-7-7-7-7--8--7------- 
G------------------------------------------------------------ 
C------------------------------------------------------------ 
 
 
Bridge 1B (Guitar 2, palm muted) 
d------------------------------------------------------------ 
A------------------------------------------------------------ 
F------------------------------------------------------------ 
C------------------------------------------------------------ 
G--5-------------5---------------5----------------8--5------- 
C--0-0-0-0-0-0-0-0-0-0-0-0-0-0-0-0-0-0-0-0-0-0-0--0--0------- 
 
(continued) 
d------------------------------------------------------------ 
A------------------------------------------------------------ 
F------------------------------------------------------------ 
C------------------------------------------------------------ 
G--7-------------7---------------7----------------7--7------- 
C--0-0-0-0-0-0-0-0-0-0-0-0-0-0-0-7-7-7-7-7-7-7-7--8--7------- 
 
 
Bridge 2 (palm mute after the beginning) 
d------------------------|----------------------------------- 
A------------------------|----------------------------------- 
F-------10---9-----------|----------------------------------- 
C--0----10---9----8---7--|----------------------------------- 
G--0-----8---7----8---7--|--5-------5-------5-------8-------- 
C--0--------------8---7--|--0-0-0-0-0-0-0-0-0-0-0-0-0-0-0-0-- 
 
(continued) 
d------------------------------------------------------------ 
A------------------------------------------------------------ 
F------------------------------------------------------------ 
C------------------------------------------------------------ 
G--7-------7--------0-0-1p0--0-0-1p0--5-------5--------0-0--- 
C--0-0-0-0-0-0-0-0--0-0-1p0--0-0-1p0--0-0-0-0-0-0-0-0--0-0--- 
 
(continued) 
d------------------------------------------------------------ 
A------------------------------------------------------------ 
F------------------------------------------------------------ 
C------------------------------------------------------------ 
G--1p0--0-0-1p0--2-------2--------0-0-1p0--0-0-1p0--0-0-1p0-- 
C--1p0--0-0-1p0--2-2-2-2-2-2-2-2--0-0-1p0--0-0-1p0--0-0-1p0-- 
 
(continued) 
d------------------------------------------------------------ 
A------------------------------------------------------------ 
F------------------------------------------------------------ 
C------------------------------------------------------------ 
G--5--------0-0-1p0--0-0-1p0--2-------2--------0-0-1p0------- 
C--0-0-0-0--0-0-1p0--0-0-1p0--2-2-2-2-2-2-2-2--0-0-1p0------- 
 
(continued) 
d------------------------------------------------------------ 
A------------------------------------------------------------ 
F------------------------------------------------------------ 
C------------------------------------------------------------ 
G--0-0-1p0--0-0-1p0--5--------0-0-1p0--0-0-1p0--2------------ 
C--0-0-1p0--0-0-1p0--0-0-0-0--0-0-1p0--0-0-1p0--2-2-2-2------ 
 
(continued) 
d------------------------------------------------------------ 
A------------------------------------------------------------ 
F------------------------------------------------------------ 
C------------------------------------------------------------ 
G--2--------0-0-1p0--0-0-1p0--------------------------------- 
C--2-2-2-2--0-0-1p0--0-0-1p0--------------------------------- 
 
Outro 
d------------------------------------------------------------ 
A------------------------------------------------------------ 
F------------------------------------------------------------ 
C---------------------------------------53--3-3------------- 
G--x--x-x--x-3-4-5----------------0---------------3---------- 
C--x--x-x--x-0-----0m-0m-0m-0m-0m-0-0m------------0-0m-0m-0m- 
 
(continued) 
d------------------------------------------------------------ 
A------------------------------------------------------------ 
F------------------------------------------------------------ 
C-----------------------------------53--3-3----------------- 
G--------5----------------3/5----------------3--------------- 
C--0m-0m-0-0m-0m-0m-0m-0m-0---0m-0m----------0-0m-0m-0m-0m--- 
 
(continued) 
d------------------------------------------------------------ 
A------------------------------------------------------------ 
F------------------------------------------------------------ 
C-----------------------------53--3------------------------- 
G--5----------------3/5---------------6m-5m-3m-6m-5m-3m-0m--- 
C--0-0m-0m-0m-0m-0m-0---0m-0m---------6m-5m-3m-6m-5m-3m-0m--- 
 
 
Intro 1 
Intro 2 
Verse A, B 
Verse A 
Verse A, C 
Pre-Chorus A, B 
Chorus 
Verse A 
Verse A, C 
Pre-Chorus A, B 
Chorus 
Bridge 1A 
Bridge 1A, 1B 
Bridge 2 
Chorus 
Outro 
 
 
_______________________________________________________ 
Contribuição: Rodrigo Gomes Silva([email protected]) 

	  

Full key step upFull key step up
Half key step upHalf key step up
Half key step downHalf key step down
Full key step downFull key step down
Search Paypal
auto scroll beats size up size down change color hide chords drawings
tab show chords e-chords YouTube Clip e-chords hide all tabs e-chords go to top tab