Love

She Comes In Colors

Love

bass

by  UBIRBOMFIM

save to print version add songbook text version e-mail correct tuner
chordsukulelecavacokeyboardtabbassdrumsharmonicaflute Guitar Pro
close

there isn't a video lesson for this song

chords

She Comes In Colors

	  		BAND: Love 
TITLE: She Comes In Colors 
ALBUM: Da Capo 
TABBED BY: [email protected] 

Intro 
                                                                                 "A thought in my..." 
G|------------------------|------------------------|------------------------|------------------------| 
D|------------------------|------------------------|------------------------|------------------------| 
A|------------------------|------------------------|------------------------|------------------------| 
E|------------------------|------------------------|------------------------|------------------------| 
   1  &  2  &  3  &  4  &   1  &  2  &  3  &  4  &   1  &  2  &  3  &  4  &   1  &  2  &  3  &  4  &  

verse 1 

  "head I think..." 
G|------------------------|------------------------|------------------------|------------------------| 
D|------------------------|------------------------|------------------------|------------------------| 
A|------------------------|------------------------|------------------------|------------------------| 
E|------------------------|------------------------|------------------------|------------------------| 
   1  &  2  &  3  &  4  &   1  &  2  &  3  &  4  &   1  &  2  &  3  &  4  &   1  &  2  &  3  &  4  &  

G|------------------------|------------------------|------------------------|------------------------| 
D|------------------------|------------------------|------------------------|------------------------| 
A|------------------------|------------------------|------------------------|------------------------| 
E|------------------------|------------------------|------------------------|------------------------| 
   1  &  2  &  3  &  4  &   1  &  2  &  3  &  4  &   1  &  2  &  3  &  4  &   1  &  2  &  3  &  4  &  

Chorus 

  "Oh whoa..." 
G|------------------------|------------------------|-------0--5-----2--0----|----------9-------------| 
D|----------------------7-|----------------10------|----2-------------------|-------9--------10-9----| 
A|-5--0--5--5-----9-------|-8-----8--8--------10---|-3----------------------|-7--10------------------| 
E|------------------------|----8-------------------|------------------------|------------------------| 
   1  &  2  &  3  &  4  &   1  &  2  &  3  &  4  &   1  &  2  &  3  &  4  &   1  &  2  &  3  &  4  &  

verse 2 

                                       "When I was invisible..." 
G|------------------------|------------------------|------------------------|------------------------| 
D|----------------------7-|---------------------7--|----------------5-------|-3----------------------| 
A|-0--------0--0-----7----|-0--------0--0-----7----|-------------------5--2-|----3--------------0----| 
E|------------------------|------------------------|-3--------3--3----------|-------5-----1--3-----3-| 
   1  &  2  &  3  &  4  &   1  &  2  &  3  &  4  &   1  &  2  &  3  &  4  &   1  &  2  &  3  &  4  &  

G|------------------------|------------------------|------------------------|------------------------| 
D|----------------------7-|---------------------7--|----------------5-------|-3----------------------| 
A|-0--------0--0-----7----|-0--------0--0-----7----|-------------------5--2-|----3--------------0----| 
E|------------------------|------------------------|-3--------3--3----------|-------5-----1--3-----3-| 
   1  &  2  &  3  &  4  &   1  &  2  &  3  &  4  &   1  &  2  &  3  &  4  &   1  &  2  &  3  &  4  &  

                                          "Whoa whoa..." 
G|------------------------|------------------------| 
D|----------------------7-|------------------------| 
A|-0--------0--0-----5/7--|-0--------0--0-----0----| 
E|------------------------|------------------------| 
   1  &  2  &  3  &  4  &   1  &  2  &  3  &  4  & 

Chorus 

  "Whoa..." 
G|------------------------|------------------------|-------0--5-----2--0----|----------9-------------| 
D|----------------------7-|----------------10------|----2-------------------|-------9--------10-9----| 
A|-5--0--5--5-----9-------|-8-----8--8--------10---|-3----------------------|-7--10------------------| 
E|------------------------|----8-------------------|------------------------|------------------------| 
   1  &  2  &  3  &  4  &   1  &  2  &  3  &  4  &   1  &  2  &  3  &  4  &   1  &  2  &  3  &  4  &  

Instrumental 

G|------------------------|------------------------|------------------------|------------------------| 
D|----------------------7-|---------------------7--|----------------5-------|-3----------------------| 
A|-0--------0--0-----7----|-0--------0--0-----7----|-------------------5--2-|----3--------------0----| 
E|------------------------|------------------------|-3--------3--3----------|-------5-----1--3-----3-| 
   1  &  2  &  3  &  4  &   1  &  2  &  3  &  4  &   1  &  2  &  3  &  4  &   1  &  2  &  3  &  4  &  

G|------------------------|------------------------|------------------------|------------------------| 
D|----------------------7-|---------------------7--|----------------5-------|-3----------------------| 
A|-0--------0--0-----7----|-0--------0--0-----7----|-------------------5--2-|----3--------------0----| 
E|------------------------|------------------------|-3--------3--3----------|-------5-----1--3-----3-| 
   1  &  2  &  3  &  4  &   1  &  2  &  3  &  4  &   1  &  2  &  3  &  4  &   1  &  2  &  3  &  4  &  

                                          "Whoa whoa..." 
G|------------------------|------------------------| 
D|----------------------7-|------------------------| 
A|-0--------0--0-----7----|-0--------0--0-----0----| 
E|------------------------|------------------------| 
   1  &  2  &  3  &  4  &   1  &  2  &  3  &  4  & 

Chorus 

  "Whoa..." 
G|------------------------|------------------------|-------0--5-----2--0----|----------9-------------| 
D|----------------------7-|----------------10------|----2-------------------|-------9--------10-9----| 
A|-5--0--5--5-----9-------|-8-----8--8--------10---|-3----------------------|-7--10------------------| 
E|------------------------|----8-------------------|------------------------|------------------------| 
   1  &  2  &  3  &  4  &   1  &  2  &  3  &  4  &   1  &  2  &  3  &  4  &   1  &  2  &  3  &  4  &  

Instrumental 

G|------------------------|------------------------|------------------------|------------------------| 
D|----------------------7-|---------------------7--|----------------------7-|---------------------7--| 
A|-0--------0--0-----7----|-0--------0--0-----7----|-0--------0--0-----7----|-0--------0--0-----7----| 
E|------------------------|------------------------|------------------------|------------------------| 
   1  &  2  &  3  &  4  &   1  &  2  &  3  &  4  &   1  &  2  &  3  &  4  &   1  &  2  &  3  &  4  &  

Bridge 

G|------------------------|------------------------|------------------------|------------------------| 
D|----5--------------5----|-------7-----------10---|------------------------|------------------------| 
A|-------5--2-----2-------|-5-----------8----------|-0--------0--0----------|-0--------0--0----------| 
E|-------------3----------|------------------------|------------------------|------------------------| 
   1  &  2  &  3  &  4  &   1  &  2  &  3  &  4  &   1  &  2  &  3  &  4  &   1  &  2  &  3  &  4  &  

G|------------------------|------------------------|------------------------|------------------------| 
D|----5--------------5----|-------7-----------10---|----------------------7-|------------------------| 
A|-------5--2-----2-------|-5-----------8----------|-0--------0--0-----7----|-0--------0--0-----0----| 
E|-------------3----------|------------------------|------------------------|------------------------| 
   1  &  2  &  3  &  4  &   1  &  2  &  3  &  4  &   1  &  2  &  3  &  4  &   1  &  2  &  3  &  4  &  

Chorus 

  "Whoa..." 
G|------------------------|------------------------|-------0--5-----2--0----|----------9-------------| 
D|----------------------7-|----------------10------|----2-------------------|-------9--------10-9----| 
A|-5--0--5--5-----9-------|-8-----8--8--------10---|-3----------------------|-7--10------------------| 
E|------------------------|----8-------------------|------------------------|------------------------| 
   1  &  2  &  3  &  4  &   1  &  2  &  3  &  4  &   1  &  2  &  3  &  4  &   1  &  2  &  3  &  4  &  

verse 3 

                                      "When I was in England town..." 
G|------------------------|------------------------|------------------------|------------------------| 
D|----------------------7-|---------------------7--|----------------5-------|-3--3-------------------| 
A|-0--------0--0-----7----|-0--------0--0-----7----|-------------------5----|-------3----------------| 
E|------------------------|------------------------|-3--------3--3----------|-------------1-----3--1-| 
   1  &  2  &  3  &  4  &   1  &  2  &  3  &  4  &   1  &  2  &  3  &  4  &   1  &  2  &  3  &  4  &  

G|------------------------|------------------------|------------------------|------------------------| 
D|----------------------7-|---------------------7--|----------------5-------|-3----------------------| 
A|-0--------0--0-----7----|-0--------0--0-----7----|-------------------5--2-|----3--------------0----| 
E|------------------------|------------------------|-3--------3--3----------|-------5-----1--3-----3-| 
   1  &  2  &  3  &  4  &   1  &  2  &  3  &  4  &   1  &  2  &  3  &  4  &   1  &  2  &  3  &  4  &  

                                          "Whoa whoa..." 
G|------------------------|------------------------| 
D|----------------------7-|----------------------7-| 
A|-0--------0--0-----7----|-0--------0--0-----7----| 
E|------------------------|------------------------| 
   1  &  2  &  3  &  4  &   1  &  2  &  3  &  4  & 

Chorus 

  "Whoa..." 
G|------------------------|------------------------|-------0--5-----2--0----|----------9-------------| 
D|----------------------7-|----------------10------|----2-------------------|-------9--------10-9----| 
A|-5--0--5--5-----9-------|-8-----8--8--------10---|-3----------------------|-7--10------------------| 
E|------------------------|----8-------------------|------------------------|------------------------| 
   1  &  2  &  3  &  4  &   1  &  2  &  3  &  4  &   1  &  2  &  3  &  4  &   1  &  2  &  3  &  4  &  

Instrumental 

G|------------------------|------------------------|------------------------|------------------------| 
D|----------------------7-|---------------------7--|----------------------7-|---------------------7--| 
A|-0--------0--0-----7----|-0--------0--0-----7----|-0--------0--0-----7----|-0--------0--0-----7----| 
E|------------------------|------------------------|------------------------|------------------------| 
   1  &  2  &  3  &  4  &   1  &  2  &  3  &  4  &   1  &  2  &  3  &  4  &   1  &  2  &  3  &  4  &  

Bridge 

G|------------------------|------------------------|------------------------|------------------------| 
D|----5--------------5----|-------7-----------10---|------------------------|------------------------| 
A|-------5--2-----2-------|-5-----------8----------|-0--------0--0----------|-0--------0--0----------| 
E|-------------3----------|------------------------|------------------------|------------------------| 
   1  &  2  &  3  &  4  &   1  &  2  &  3  &  4  &   1  &  2  &  3  &  4  &   1  &  2  &  3  &  4  &  

G|------------------------|------------------------|------------------------|------------------------| 
D|----5--------------5----|-------7-----------10---|------------------------|------------------------| 
A|-------5--2-----2-------|-5-----------8----------|-0----------------------|------------------------| 
E|-------------3----------|------------------------|------------------------|------------------------| 
   1  &  2  &  3  &  4  &   1  &  2  &  3  &  4  &   1  &  2  &  3  &  4  &   1  &  2  &  3  &  4  &  

*********************************** 

| /   Slide-up 

*********************************** 
		  

See also:

bass Simon & Garfunkel - The sounds of silence bass Live - Dolphin“s Cry bass Guns N' Roses - Sweet Child O' Mine bass Guns N' Roses - Civil War bass 4 Non Blondes - What`s up (ver. 1) bass Guns N' Roses - Sweet Child O' Mine (ver. 3)
e-chords

Other versions:

bass Love - She Comes In Colors
auto scroll beats size up size down change color hide chords drawings
tab show chords e-chords YouTube Clip e-chords hide all tabs e-chords go to top tab

share