King Gizzard & The Lizard Wizard

Polygondwanaland Bass Tab

King Gizzard & The Lizard Wizard

Difficulty: nolevelnolevel

by tercmoraes

tuner correct add songbook print version text version save to e-mail
chordsukulelecavacokeyboardtabbassdrumsharmonicsflute Guitar Pro
close

there isn't a video lesson for this song

request
chords

Polygondwanaland

  		
Intro 
Rest until 0:22 

Verse 
G|------|------|9---11-|-------| 
D|----9-|7---9-|-------|11---9-| 
A|9-----|------|-------|-------| x8 
E|------|------|-------|-------| 

Pre-Chorus 
G|---------|---------|-------------|-------------|   
D|---------|---------|-------------|-------------|    
A|9-9-9-9--|9-9-9-9--|-------------|12-12-12-12--|    
E|---------|---------|10-10-10-10--|-------------|    
                                                       
G|---------|---------|---------|-------------|        
D|---------|---------|---------|---10----10--|        
A|9-9-9-9--|9-9-9-9--|---------|12----12-----|       
E|---------|---------|8-8-8-8--|-------------|       

G|---------|---------|-------------|-------------|   
D|---------|---------|-------------|-------------|    
A|9-9-9-9--|9-9-9-9--|-------------|12-12-12-12--|    
E|---------|---------|10-10-10-10--|-------------|    
                                                       
G|---------|---------|---------|-------------|        
D|---------|---------|---------|---10----10--|        
A|9-9-9-9--|9-9-9-9--|---------|12----12-----|       
E|---------|---------|8-8-8-8--|-------------|       

Chorus 
G|---------------------------| 
D|----9---7---6---7----------| 
A|9-------------------7------| x4 
E|------------------------9--| 

G|---------| 
D|------9--| 
A|---------| x8 
E|7-7-7----| 

Verse 
G|------|------|9---11-|-------| 
D|----9-|7---9-|-------|11---9-| 
A|9-----|------|-------|-------| x4 
E|------|------|-------|-------| 

Pre-Chorus 2 
G|---------|---------|-------------|-------------| 
D|---------|---------|-------------|-------------| 
A|9-9-9-9--|9-9-9-9--|-------------|12-12-12-12--| 
E|---------|---------|10-10-10-10--|-------------| 

G|---------|---------|---------|-------------| 
D|---------|---------|---------|---10----10--| 
A|9-9-9-9--|9-9-9-9--|---------|12----12-----| 
E|---------|---------|8-8-8-8--|-------------| 

G|---------|---------|-------------|-------------| 
D|---------|---------|-------------|-------------| 
A|9-9-9-9--|9-9-9-9--|-------------|12-12-12-12--| 
E|---------|---------|10-10-10-10--|-------------| 

G|---------|---------|---------|---11----11--| 
D|---------|---------|---------|10----10-----| 
A|9-9-9-9--|9-9-9-9--|---------|-------------| 
E|---------|---------|8-8-8-8--|-------------| 

Chorus 
G|---------------------------| 
D|----9---7---6---7----------| 
A|9-------------------7------| x4 
E|------------------------9--| 

G|---------| 
D|------9--| 
A|---------| x8 
E|7-7-7----| 

Solo 
G|------|------|9---11-|-------| 
D|----9-|7---9-|-------|11---9-| 
A|9-----|------|-------|-------| x8 
E|------|------|-------|-------| 

Pre-Chorus 2 
G|---------|---------|-------------|-------------| 
D|---------|---------|-------------|-------------| 
A|9-9-9-9--|9-9-9-9--|-------------|12-12-12-12--| 
E|---------|---------|10-10-10-10--|-------------| 

G|---------|---------|---------|-------------| 
D|---------|---------|---------|---10----10--| 
A|9-9-9-9--|9-9-9-9--|---------|12----12-----| 
E|---------|---------|8-8-8-8--|-------------| 

G|---------|---------|-------------|-------------| 
D|---------|---------|-------------|-------------| 
A|9-9-9-9--|9-9-9-9--|-------------|12-12-12-12--| 
E|---------|---------|10-10-10-10--|-------------| 

G|---------|---------|---------|---11----11--| 
D|---------|---------|---------|10----10-----| 
A|9-9-9-9--|9-9-9-9--|---------|-------------| 
E|---------|---------|8-8-8-8--|-------------| 

Chorus 
G|---------------------------| 
D|----9---7---6---7----------| 
A|9-------------------7------| x4 
E|------------------------9--| 

Outro 
G|---------| 
D|------9--| 
A|---------| x20 
E|7-7-7----| 
	  

Search Paypal
auto scroll beats size up size down change color hide chords drawings
tab show chords e-chords YouTube Clip e-chords hide all tabs e-chords go to top tab

share with facebook