Jerry Lee Lewis

home > Jerry Lee Lewis

Lucille Bass Tab

Jerry Lee Lewis

Difficulty: nolevelnolevel

by tarikike

tuner correct add songbook print version text version save to e-mail
chordsukulelecavacokeyboardtabbassdrumsharmonicsflute Guitar Pro
chords

Lucille

Key:  E More
Lucille Key BB
Lucille Key CC
Lucille Key C#C#
Lucille Key DD(one step down)
Lucille Key D#D#(half step down)
Lucille Key EE(original key)
Lucille Key FF(half step up)
Lucille Key F#F#(one step up)
Lucille Key GG
Lucille Key G#G#
Lucille Key AA
Lucille Key A#A#
  		 Intro 
  Q=132 
 4/4 
  Gtr I 
   Wx2          E E E E E E E E   E E E E E E E E 
G|------------|-----------------|------------------| 
D|------------|-------0-3-3-5-0-|-------0-3-3-5-0--| 
A|------------|-----2-----------|-----2------------| 
E|------------|-3-3-------------|-3-3--------------| 


   E E E E E E E E   E E E E E E E E   E E E E E E E E   E E E E E E E E 
G|-------0-3-3-5-0-|-------0-3-3-5-0-|-----------------|-----------------| 
D|-----2-----------|-----2-----------|-------0-3-3-5-0-|-------0-3-3-5-0-| 
A|-3-3-------------|-3-3-------------|-----2-----------|-----2-----------| 
E|-----------------|-----------------|-3-3-------------|-3-3-------------| 


   E E E E E E E E   E E E E E E E E   E E E E E E E E   E E E E E E E E 
G|---------5-5-7---|-------0-3-3-5-0-|-----------------|-----------------|| 
D|-----4-7-------7-|-----2-----------|-------0-3-3-5-0-|-------0-3-3-5-0-|| 
A|-5-5-------------|-3-3-------------|-----2-----------|-----2-----------|| 
E|-----------------|-----------------|-3-3-------------|-3-3-------------|| 


  1st - 4th Verses (3rd: Guitar Solo) 
  Segno $ 
     E E E E E E E E   E E E E E E E E   E E E E E E E E   E E E E E E E E 
G||------------------|-----------------|-----------------|------------------| 
D||o-------0-3-3-5-0-|-------0-3-3-5-0-|-------0-3-3-5-0-|-------0-3-3-5-0--| 
A||o-----2-----------|-----2-----------|-----2-----------|-----2------------| 
E||--3-3-------------|-3-3-------------|-3-3-------------|-3-3--------------| 


   E E E E E E E E   E E E E E E E E   E E E E E E E E   E E E E E E E E 
G|-------0-3-3-5-0-|-------0-3-3-5-0-|-----------------|-----------------| 
D|-----2-----------|-----2-----------|-------0-3-3-5-0-|-------0-3-3-5-0-| 
A|-3-3-------------|-3-3-------------|-----2-----------|-----2-----------| 
E|-----------------|-----------------|-3-3-------------|-3-3-------------| 


                                                         1. 
                                                To Coda 
   E E E E E E E E   E E E E E E E E   E E E E E E E E    E E E E E E E E 
G|---------5-5-7---|-------0-3-3-5-0-|------------------|------------------|| 
D|-----4-7-------7-|-----2-----------|-------0-3-3-5-0--|-------0-3-3-5-0-o|| 
A|-5-5-------------|-3-3-------------|-----2------------|-----2-----------o|| 
E|-----------------|-----------------|-3-3--------------|-3-3--------------|| 


                     Piano Solo 
  2. 
   E E E E E E E E    E E E E E E E E 
G|-----------------||-----------------| 
D|-------0-3-3-5-0-||-------0-3-3-5-0-| 
A|-----2-----------||-----2-----------| 
E|-3-3-------------||-3-3-------------| 


   E E E E E E E E   E E E E E E E E   E E E E E E E E 
G|-----------------|-----------------|-----------------| 
D|-------0-3-3-5-0-|-------0-3-3-5-0-|-------0-3-3-5-0-| 
A|-----2-----------|-----2-----------|-----2-----------| 
E|-3-3-------------|-3-3-------------|-3-3-------------| 


   E E E E E E E E   E E E E E E E E   E E E E E E E E   E E E E E E E E 
G|-------0-3-3-5-0-|-------0-3-3-5-0-|-----------------|-----------------| 
D|-----2-----------|-----2-----------|-------0-3-3-5-0-|-------0-3-3-5-0-| 
A|-3-3-------------|-3-3-------------|-----2-----------|-----2-----------| 
E|-----------------|-----------------|-3-3-------------|-3-3-------------| 


   E E E E E E E E   E E E E E E E E   E E E E E E E E   E E E E E E E E 
G|---------5-5-7---|-------0-3-3-5-0-|-----------------|-----------------|| 
D|-----4-7-------7-|-----2-----------|-------0-3-3-5-0-|-------0-3-3-5-0-|| 
A|-5-5-------------|-3-3-------------|-----2-----------|-----2-----------|| 
E|-----------------|-----------------|-3-3-------------|-3-3-------------|| 


 Bridge 
   Q  Q  H      Q  Q  H      Q  Q  H      E E E E E E E E 
G|------------|------------|------------|-----------------| 
D|------------|------------|------------|-----------------| 
A|------------|------------|------------|-----------------| 
E|-3----------|-3----------|-3----------|---3-3-3-3-3-3-3-| 


   E E E E E E E E   E E E E E E E E   E E E E E E E E   E E E E E E E E 
G|-------0-3-3-5-0-|-------0-3-3-5-0-|-----------------|-----------------| 
D|-----2-----------|-----2-----------|-------0-3-3-5-0-|-------0-3-3-5-0-| 
A|-3-3-------------|-3-3-------------|-----2-----------|-----2-----------| 
E|-----------------|-----------------|-3-3-------------|-3-3-------------| 


                                                          Dal Segno al Coda 
   E E E E E E E E   E E E E E E E E   E E E E E E E E   E E E E E E E E 
G|---------5-5-7---|-------0-3-3-5-0-|-----------------|------------------|| 
D|-----4-7-------7-|-----2-----------|-------0-3-3-5-0-|-------0-3-3-5-0--|| 
A|-5-5-------------|-3-3-------------|-----2-----------|-----2------------|| 
E|-----------------|-----------------|-3-3-------------|-3-3--------------|| 


                     5th Verse & Outro 
 Coda & 
   E E E E E E E E     E E E E E E E E 
G|-----------------||------------------| 
D|-------0-3-3-5-0-||o-------0-3-3-5-0-| 
A|-----2-----------||o-----2-----------| 
E|-3-3-------------||--3-3-------------| 


   E E E E E E E E   E E E E E E E E   E E E E E E E E 
G|-----------------|-----------------|-----------------| 
D|-------0-3-3-5-0-|-------0-3-3-5-0-|-------0-3-3-5-0-| 
A|-----2-----------|-----2-----------|-----2-----------| 
E|-3-3-------------|-3-3-------------|-3-3-------------| 


   E E E E E E E E   E E E E E E E E   E E E E E E E E   E E E E E E E E 
G|-------0-3-3-5-0-|-------0-3-3-5-0-|-----------------|-----------------| 
D|-----2-----------|-----2-----------|-------0-3-3-5-0-|-------0-3-3-5-0-| 
A|-3-3-------------|-3-3-------------|-----2-----------|-----2-----------| 
E|-----------------|-----------------|-3-3-------------|-3-3-------------| 


   E E E E E E E E   E E E E E E E E   E E E E E E E E 
G|---------5-5-7---|-------0-3-3-5-0-|-----------------| 
D|-----4-7-------7-|-----2-----------|-------0-3-3-5-0-| 
A|-5-5-------------|-3-3-------------|-----2-----------| 
E|-----------------|-----------------|-3-3-------------| 


  1.                  2. 
   E E E E E E E E     E E E E E E E E 
G|------------------||-----------------*| 
D|-------0-3-3-5-0-o||-------0-3-3-5-0-*| 
A|-----2-----------o||-----2-----------*| 
E|-3-3--------------||-3-3-------------*| 

************************************ 
Duration Legend 

W - whole; H - half; Q - quarter; E - 8th; S - 16th; a - acciaccatura;  
+ - note tied to previous; . - note dotted; 
Duration letters will always appear directly above the note/fret number it represents the 
duration for.  Duration letters with no fret number below them represent rests. 
Uncapitalized letters represent notes that are staccato (1/2 duration).  
************************************** 
	  

Full key step upFull key step up
Half key step upHalf key step up
Half key step downHalf key step down
Full key step downFull key step down
Search Paypal
auto scroll beats size up size down change color hide chords drawings
tab show chords e-chords YouTube Clip e-chords hide all tabs e-chords go to top tab