Jamiroquai

home > Jamiroquai

Give Hate A Chance Bass Tab

Jamiroquai

Difficulty: nolevelnolevel

by robepoiel

tuner correct add songbook print version text version save to e-mail
chordsukulelecavacokeyboardtabbassdrumsharmonicsflute Guitar Pro
chords

Give Hate A Chance

  		
G|---------------------------------------------6-6---4-4---6-2-4---------| 
D|---4-4---4-4---4-4---4-4---4-4---6-6---7-7---------------------0-2-4---| 
A|-------------------------------------------4-----2-----2-------------2-| 
E|-2-----2-----2-----2-----2-----4-----5---------------------------------| 
B|-----------------------------------------------------------------------| 

G|-------4h6-------7-7---7-5-7---------7---7---6---5------| 
D|-----4-----------------------0-5-7----------------------| 
A|-4-5-------0-4-5-----5-------------5--------------------| 
E|---------------------------------------5---4---3---2----| 
B|--------------------------------------------------------| 

G|---7---7---7-------4---4---4---4-||---------------------------------------| 
D|---------------------------------||o---4---4---4--------------------------| 
A|-5---5---5---5-5-2---2---2---2---||------------------5---5---5-----4---4--| 
E|---------------------------------||o-2---2---2---2------------------------| 
B|---------------------------------||----------------3---3---3---3-2---2----| 

G|---------------------------------------------7-----7---7------||----| 
D|-----------------------7-----7---7-----7---------------------o||----| 
A|---4-----2---2---2-------------------------5---5-5---5---5-5--||----| 
E|---------------------5---5-5---5---5-5---5-------------------o||----| 
B|-2---2-0---0---0---0------------------------------------------||----| 

G|------------------------------------------------------------------| 
D|---------7-------7------------------------------------------------| 
A|-------------------4-5-5-5-5--------------------------2h4---------| 
E|-5-5-5-5---5-5-5----------------2-2-2-2-2-2-2-2-2-2-2-----2-2-2-2-| 
B|------------------------------------------------------------------| 

G|----------------------------------------------------------------------| 
D|---------------2h4----------------------------------------------------| 
A|---------------------------------------------5-5-5---5---5---4-4-4-2--| 
E|-2-2-2-2-2-2-2-----2-2-2-2-2-2-2-2-2-2-2-4-5-------5---5---5----------| 
B|----------------------------------------------------------------------| 

G|-4h6~------------------------4-------------------------------4---------| 
D|---------------------------4---4---------------------------4---4-------| 
A|-----5-5-5-5---0-4-4-4-4-2-------2-5-5-5---5---5---4-4-4-2-------2-5-5-| 
E|-------------2---------------------------5---5---5---------------------| 
B|-----------------------------------------------------------------------| 

G|---------------------4-----------------------------4-------------------| 
D|-------------------4---4-------------------------4---4-----------------| 
A|-5-5---0-4-4-4-4-2-------2-5-5-5-5---0-4-4-4-4-2-------2-5-5-5-5---0-4-| 
E|-----2-----------------------------2-----------------------------2-----| 
B|-----------------------------------------------------------------------| 

G|---6-5-4-------------------------------------------------------------| 
D|---------------------------------------------------------------------| 
A|-4-------4-3-2-5-5-5-5---0-4-4-4-2-0-2-0-2-5-5-5---5---5---4-4-4-2---| 
E|-----------------------2-------------------------5---5---5-----------| 
B|---------------------------------------------------------------------| 



************************************ 

| h  Hammer-on 
| ~  Vibrato 
  

************************************ 
	  

Search Paypal
auto scroll beats size up size down change color hide chords drawings
tab show chords e-chords YouTube Clip e-chords hide all tabs e-chords go to top tab