Jamiroquai

home > Jamiroquai

Scam Bass Tab

Jamiroquai

Difficulty: nolevelnolevel

by VsWorld

tuner correct add songbook print version text version save to e-mail
chordsukulelecavacokeyboardtabbassdrumsharmonicsflute Guitar Pro
chords

Scam

  		

intro 
|--------| |-----| 
|--------| |-----| 
|-3--5-6-| |-6-5-| x4 
|--------| |-----| 

|---5----7---8-| |-----------------------------| 
|--------------| |---6---6---------------------|      last bar 
|-3----5---6---| |---------| X4  |-6(repeat)---| 
|--------------| |-4---4-----------------------| 
  t p  t p t p     T P T P 

main riff                                 fill 
|-------------|-----------|              |-----------------| 
|---3---4---5-|-------0---|              |---8---8---8---8-| 
|-------------|---0-1---3-| repeat lots  |-----------------| 
|-1---2---3---|-3---------|              |-x---x---x---x---| 
  t p t p t p                              t p t p t p t p 

Chorus 
|--------------10---11---12--12//15--| 
|------5\\3--------------------------| 
|------------8----9----10------------| repeat 
|-3--x-------------------------------| 
  t  t p     t p  t p  t p   p 

main riff 
|-------------|-----------| 
|---3---4---5-|-------0---| 
|-------------|---0-1---3-| repeat lots 
|-1---2---3---|-3---------| 
  t p t p t p 

 fills 
|-----------------| |-------------| 
|---8---8---8---8-| |---3---4---5-| 
|-----------------| |-------------| 
|-x---x---x---x---| |-11--22--33--| 
  t p t p t p t p     ttp ttp ttp 

Chorus 
|--------------10---11---12--12//15--| 
|------5\\3--------------------------| 
|------------8----9----10------------| repeat 
|-3--x-------------------------------| 
  t  t p     t p  t p  t p   p 

last bar 
|---------------| 
|---5-3---------| 
|-------5-4-3---| 
|-3-----------3-| 

Bridge 
|----------|------------|----------|------------| 
|----------|------------|----------|------------| 
|-55-2-5-4-|-55-22-55-3-|-33-0-3-0-|-33-00-33-2-| 
|----------|------------|----------|------------| 

 
	  

Search Paypal
auto scroll beats size up size down change color hide chords drawings
tab show chords e-chords YouTube Clip e-chords hide all tabs e-chords go to top tab