Green Day

home > Green Day

Boulevard of Broken Dreams Bass Tab

Green Day

Difficulty: BeginnerBeginner

tuner correct add songbook print version text version save to e-mail
chordsukulelecavacokeyboardtabbassdrumsharmonicsflute Guitar Pro
chords

Boulevard of Broken Dreams

Year: 2004 - Album: American Idiot

(Billie Joe Armstrong)

	   "Don't know where it goes...." (5x) 
G|------------------------| 
D|------------------------| 
A|-----------6-6\1-11-----| 
E|1-1/4-44--4-------4\1---| 
 
"I walk...." 
(before chorus) 
G|----------------------| 
D|----------------------| 
A|---------66\1-11-13---| 
E|11/4-44-4-------------| 
 
Chorus 
"My shadows are the only one that walks beside me..." 
G|-----------------------------------------------------------------| 
D|-----------------------------------------------------------------| 
A|4444----6666----4444----6666----4444----6666----4444----333333---| 
E|----4444----1111----4444----1111----4444----1111----4444---------| 
 
"Ah ah..., I'm walking down the line..." (9x) 
G|------------------------| 
D|------------------------| 
A|-----------6-6\1-11-----| 
E|1-1/4-44--4-------4\1---| 
 
"I walk...." 
(before chorus) 
G|----------------------| 
D|----------------------| 
A|---------66\1-11-13---| 
E|11/4-44-4-------------| 
 
"Ah ah, ah ah..."  
G|--------------------------------------------| 
D|--------------------------------------------| 
A|-----------6-6\1-11------------66\1-11-13---| 
E|1-1/4-44--4-------4\1-11/4-44-4-------------| 
 
Solo 
G|----------------------------------------------------------------| 
D|----------------------------------------------------------------| 
A|4444----6666----4444----6666----44--6666----44--3333333333333---| 
E|----4444----1111----4444----1111--44----1111--44----------------| 
 
only guitar and vocal... 
 
"My shadows are the only one that walks beside me..." 
G|-------------------------------------------------------------------------------| 
D|-------------------------------------------------------------------------------| 
A|11-34444----6666----4444----6666----4444----6666----4444----3333333333333333---| 
E|--------4444----1111----4444----1111----4444----1111----4444-------------------| 
 
final riff 
G|--------------------------------------------------------------------------------------------------------------| 
D|--------------------------------------------------------------------------------------------------------------| 
A|1-11-4-44-6-66-5-55---------1-11-4-44-6-66-5-55---------1-11-4-44-6-66-5-55---------1-11-4-44-6-66-5-55-------| 
E|-------------------4-44-0-00-------------------4-44-0-00-------------------4-44-0-00-------------------4400---| 
 
 
| /  slide up 
| \  slide down 
| h  hammer-on 
| p  pull-off 
| ~  vibrato 
| +  harmonic 
| x  Mute note 
=============================================================================== 

	  

there isn't a video lesson for this song

request
Search
auto scroll beats size up size down change color hide chords drawings
tab show chords e-chords YouTube Clip e-chords hide all tabs e-chords go to top tab