Good Charlotte

home > Good Charlotte

Waldorf Worldwide (ver. 3) Bass Tab

Good Charlotte

Difficulty: nolevelnolevel

tuner correct add songbook print version text version save to e-mail
chordsukulelecavacokeyboardtabbassdrumsharmonicsflute Guitar Pro
chords

Waldorf Worldwide (ver. 3)

  		

Band: 
 

tabbed by: elibailey ([email protected])
Comments, Questions Welcome.

tuning: standard (E-A-D-G)

Intro
G|-----------------------------------------------------------------------|
D|-----------------------------------------------------------------------|
A|-----------------------------------------------------------------------|
E|-1-1-1-1---------------------------------------------------------------|

Verse
G|-----------------------------------------------------------------------|
D|-----------------------------------------------------------------------|
A|-----8-8-6-6-8-8-------------------------------------------------------|
E|-6-6-------------------------------------------------------------------|

Chorus
G|-----------------------------------------------------------------------|
D|-----------------------------------------------------------------------|
A|-----8-8-6-6-8-8-------------------------------------------------------|
E|-6-6-------------------------------------------------------------------|

	  

Search Paypal
auto scroll beats size up size down change color hide chords drawings
tab show chords e-chords YouTube Clip e-chords hide all tabs e-chords go to top tab