Good Charlotte

home > Good Charlotte

Waldorf Worldwide (ver. 2) Bass Tab

Good Charlotte

Difficulty: nolevelnolevel

tuner correct add songbook print version text version save to e-mail
chordsukulelecavacokeyboardtabbassdrumsharmonicsflute Guitar Pro
chords

Waldorf Worldwide (ver. 2)

  		



""
Tabbed By: Guitarist41X
Tuning: 5-string in Standard (low to high) B E A D G
This tab is right

Intro                                      x2
|----------|---------------------------------|---|
|----------|---------------------------------|---|
|----------|---------8-8-8-8-6-6-6-6-8-8-8-8-|---|
|-1-1--1-1-|-6-6-6-6-------------------------|-6-|
|----------|---------------------------------|---| 

Verse 1                              x3                        4th time
|------|-------------------------------|-------------------------------|
|------|-------------------------------|---------------------------6-8-|
|------|----------8-8---6-6-6--6-8-8---|----------8-8---6-6-6--6-8-----|
|-/18\-|-6-6-6--6-----6--------------5-|-6-6-6--6-----6----------------|
|------|-------------------------------|-------------------------------|

Chorus                          x4
|---------------------------------|
|---------------------------------|
|---------8-8-8---6-6-6-6-8-8-8---|
|-6-6-6-6-------6---------------5-|
|---------------------------------|

Verse 2
|--------------------------------------------------------------------------------------------------|
|--------------------------------------------------------------------------------------------------|
|------8---6-6-6--6-8-8------------8-8---6-6-6--6-8-8--------8-8---6-6-6--6-8-8------------8-8---6-|
|-6\//---6--------------5-6-6-6--6-----6--------------5-6\\/-----6--------------5-6-6-6--6-----6---|
|--------------------------------------------------------------------------------------------------|

Verse 2 continued (1:34)
|-----------------------------------------------------------------|
|-----------------------------------------------------------------|
|-----------8-8---6-6-6-6-6-8-8-------------8-8---6-6-6-6-6-------|
|-6-6-6-6-6-----6---------------5-6-6-6-6-6-----6-----------------|
|-----------------------------------------------------------6-4-6-|

Yes more of Verse 2
|---------------------------------------------------|
|---------------------------------------------------|
|-----------8-8---6-6-6-6-6-8-8-------------8-8---6-|
|-6-6-6-6-6-----6---------------5-6-6-6-6-6-----6---|
|---------------------------------------------------|

Repeat Chorus Riff 3x then

|-15--15--14---------------------|
|-------------15--13--13--15--15-|
|--------------------------------|
|--------------------------------|
|--------------------------------|

Bridge
|-----------------------------------------------------------------|
|-----------------------------------------------------------------|
|-6-6-6-6-6-6-6-6-8-8-8-8-8-8-8-8---------------------------------|
|---------------------------------6-6-6-6-4-4-4-4-3-3-3-3-3-3-3-3-|
|-----------------------------------------------------------------|

|-----------------------------------------------------------------------------------------------|
|-------------------------------------------8-8-8-8---------------------------------------------|
|-6-6-6-6-6-6-6-6-8-8-8-8-10-8--------------------------------------6-6-6-6-6-6-6-6-8-8-8-8-8\\-|
|------------------------------10-8-6-6-6-6---------3-3-3-3-3-3-3-3-----------------------------|
|-----------------------------------------------------------------------------------------------|

|----------------------------------------------------------------------------------------|
|----------------------------------------------------------------------------------------|
|----------8-8-8-8-6-6-6-6-68-8-8-8----------8-8-8-8-6-6-6-6-68-8-8-8----------8-8-8-8-6-|
|-6-6-6-6-6-------------------------6-6-6-6-6-------------------------6-6-6-6-6----------|
|----------------------------------------------------------------------------------------|

Ending (Fast Stuff)
|-----------------------------------------------------------------|
|-----------------------------------------------------------------|
|-----------------8-8-8-8-8-8-8-8-6-6-6-6-6-6-6-6-8-8-8-8-8-8-8-8-|
|-6-6-6-6-6-6-6-6-------------------------------------------------|
|-----------------------------------------------------------------|

|-----------------------------------------------------------------|
|---------------------------------------------------------10-8----|
|-----------------8-8-8-8-8-8-8-8-6-6-6-6-6-6-6-6-8-8-8-8------8--|
|-6-6-6-6-6-6-6-6-------------------------------------------------|
|-----------------------------------------------------------------|

|-----------------------------------------------------------------|
|-----------------------------------------------------------------|
|-----------------8-8-8-8-8-8-8-8-6-6-6-6-6-6-6-6-8-8-8-8-8-8-8-8-|
|-6-6-6-6-6-6-6-6-------------------------------------------------|
|-----------------------------------------------------------------|

|-----------------------------------------------------------------|
|-----------------------------------------------------------------|
|-----------------8-8-8-8-8-8-8-8-6-6-6-6-6-6-6-6-8---------------|
|-6-6-6-6-6-6-6-6-------------------------------------------------|
|-----------------------------------------------------------------|

|-----------------------|
|-----------------------|
|-----------------------|
|-6--------6-------6----|
|-----------------------|

	  

Search Paypal
auto scroll beats size up size down change color hide chords drawings
tab show chords e-chords YouTube Clip e-chords hide all tabs e-chords go to top tab