Good Charlotte

home > Good Charlotte

The River Bass Tab

Good Charlotte

Difficulty: nolevelnolevel

by yersi68

tuner correct add songbook print version text version save to e-mail
chordsukulelecavacokeyboardtabbassdrumsharmonicsflute Guitar Pro
chords

The River

  		Esta para un bajo de 5 cuerdas pero tambien se puede sacar en uno de 4 solo  
qe el bright hay que hacerlo en la 4 cuerda en los  
primeros 5 trastes deslisando como si fuera un slide. 

Intro 

F#|------------------------------------------------| 
C#|------------------------------------------------| 
G#|--------12\-77777777-33333333-------------------| 
D#|------------------------------33333333-5555555--| 
A#|------------------------------------------------| 

F#|------------------------------------------------| 
C#|------------------------------------------------| 
G#|----------33333333------------------------------| 
D#|--00000000--------33333333-55555555-------------| 
A#|------------------------------------------------| 

F#|------------------------------------------------| 
C#|------------------------------------------------| 
G#|----(7)-777-(7)-(7)-7777-5----------------------| 
D#|------------------------------------------------| 
A#|------------------------------------------------| 


Verso 

F#|------------------------------------------------| 
C#|------------------------------------------------| 
G#|-77-755-533-322-21010-1099-977-757--------------|x4  10 es el decimo traste 
D#|------------------------------------------------| 
A#|------------------------------------------------| 

Pre Coro 

F#|------------------------------------------------| 
C#|------------------------------------------------| 
G#|--99-999-99-999-1212-121212-1212-121212---------| 
D#|------------------------------------------------| 
A#|------------------------------------------------| 

F#|------------------------------------------------| 
C#|------------------------------------------------| 
G#|---------------------7\-------------------------| 
D#|---33333333-55555555----------------------------| 
A#|------------------------------------------------| 

Coro 

F#|------------------------------------------------| 
C#|------------------------------------------------| 
G#|--------7\-77777777-33333333--------------------| 
D#|------------------------------33333333-5555555--| 
A#|------------------------------------------------| 

F#|------------------------------------------------| 
C#|------------------------------------------------| 
G#|----------33333333------------------------------| 
D#|--00000000--------33333333-55555555-------------| 
A#|------------------------------------------------| 

F#|------------------------------------------------| 
C#|------------------------------------------------| 
G#|-----------77777777-99999999--------------------| 
D#|------------------------------33333333-5555555--| 
A#|------------------------------------------------| 

F#|------------------------------------------------| 
C#|------------------------------------------------| 
G#|----------33333333------------------------------| 
D#|--00000000--------33333333-55555555-------------| 
A#|------------------------------------------------| 

Verso 

F#|------------------------------------------------| 
C#|------------------------------------------------| 
G#|----7-------------------------------------------| 
D#|------7-0-077-(7)(7)(7)-------------------------| 
A#|------------------------------------------------| 


F#|------------------------------------------------| 
C#|------------------------------------------------| 
G#|-77-755-533-322-21010-1099-977-757--------------|x2   
D#|------------------------------------------------| 
A#|------------------------------------------------| 

F#|------------------------------------------------| 
C#|----3/7\5/7-------------------------------------| 
G#|------------------------------------------------| 
D#|------------------------------------------------| 
A#|------------------------------------------------| 

F#|------------------------------------------------| 
C#|------------------------------------------------| 
G#|-77-755-533-322-21010-1099-977-757--------------|x2   
D#|------------------------------------------------| 
A#|------------------------------------------------| 

Precoro x1 
Coro x1 

Bright 

F#|------------------------------------------------| 
C#|------------------------------------------------| 
G#|-----------77777777-99999999--------------------| 
D#|------------------------------33333333-5555555--| 
A#|------------------------------------------------| 

F#|------------------------------------------------| 
C#|------------------------------------------------| 
G#|-------77777777-99999999-------------------9\---| 
D#|--------------------------33333333-5555555------| 
A#|------------------------------------------------| 

F#|------------------------------------------------| 
C#|------------------------------------------------| 
G#|------------------------------------------------| 
D#|------------------------------------------------| 
A#|------5-55-9-99--12-1212--1515-1212-99----------| 


Outro 

F#|------------------------------------------------| 
C#|------------------------------------------------| 
G#|------------77777777-33333333-------------------| 
D#|------------------------------33333333-5555555--| 
A#|------------------------------------------------| 

F#|------------------------------------------------| 
C#|------------------------------------------------| 
G#|------------77777777-33333333-------------------| 
D#|------------------------------33333333-5555555--| 
A#|------------------------------------------------| 

F#|------------------------------------------------| 
C#|------------------------------------------------| 
G#|------------77777777-33333333-------------------| 
D#|------------------------------33333333-5555555--| 
A#|------------------------------------------------| 

F#|------------------------------------------------| 
C#|------------------------------------------------| 
G#|-----9999999999999999999999999\-----------------| 
D#|------------------------------------------------| 
A#|------------------------------------------------| 
	  

Search Paypal
auto scroll beats size up size down change color hide chords drawings
tab show chords e-chords YouTube Clip e-chords hide all tabs e-chords go to top tab