Good Charlotte

home > Good Charlotte

The River Tab

Good Charlotte

Difficulty: ExpertExpert

by Xpererience

tuner correct add songbook print version text version save to e-mail
chordsukulelecavacokeyboardtabbassdrumsharmonicsflute Guitar Pro
chords

The River

  		------------------------------------------2-2-2-2-2-2-2-2-2---4-4-4-4-4-4-4-4-4 
--6-6-6-6-6-6-6-6-6---2-2-2-2-2-2-2-2-2---4-4-4-4-4-4-4-4-4---6-6-6-6-6-6-6-6-6 
--8-8-8-8-8-8-8-8-8---4-4-4-4-4-4-4-4-4---4-4-4-4-4-4-4-4-4---6-6-6-6-6-6-6-6-6 
--8-8-8-8-8-8-8-8-8---4-4-4-4-4-4-4-4-4---------------------------------------- 
------------------------------------------------------------------------------- 
------------------------------------------------------------------------------- 

(this is only the distorted part in the initial and riff, cause there are some chords I couldn't find) 

SOLO 

~ Slide 

------------------------------------- 
------------------------------------- 
------------------------------------- 
--1~11--6~18--16-15--13--13-13-14-13- 
------------------------------------- 
------------------------------------- 

this repeats one more time but now you do this: 

------------------------------------- 
------------------------------------- 
------------------------------------- 
--1~11--6~18--20-18-20-18------------ 
--------------------------19--------- 
------------------------------------- 

(if you do it right it should sound exacly like in the music) 

Good pratice 

any probelms with it ask me: [email protected] 

	  

Search Paypal
auto scroll beats size up size down change color hide chords drawings
tab show chords e-chords YouTube Clip e-chords hide all tabs e-chords go to top tab