Good Charlotte

home > Good Charlotte

The Day That I Die (ver. 2) Bass Tab

Good Charlotte

Difficulty: IntermediateIntermediate

tuner correct add songbook print version text version save to e-mail
chordsukulelecavacokeyboardtabbassdrumsharmonicsflute Guitar Pro
chords

The Day That I Die (ver. 2)

  		

Song : Day That I Die
Band : 
Album : The Young And The Hopeless
Tabbed By : Lucky ([email protected])

There is no bass in this song
But you can play this
(listen to the guitar part for the ryhtm)

Riff 1
G:-----------------------------------------------------------------
D:-----------------------------------------------------------------
A:-----------------6---6--6---66-6-4---4--4---44-4-----------------
E:-4---4--4---44-4---------------------------------4---4--4---44-4-

Riff 2
G:-------------------------------------------------------
D:-------------------------------------------------------
A:-3---3---3---3-3--33-33--3---4---4-4--44-44--4-4--44-4-
E:-------------------------------------------------------

Riff 3
G:--------------------------------------------------
D:--------------------------------------------------
A:-6--6-6--66-6-4--4-4--44-4-6--6-6--66-6-4---------
E:--------------------------------------------------

Riff 4
G:-----------------------------------------------------------------
D:-----------------------------------------------------------------
A:-----------------6---6--6---66-6-4---4--4---44-4--44--4--44------
E:-4---4--4---44-4-------------------------------------------------

Riff 5
G:---------------------------------------------------------------------------------------
D:---------------------------------------------------------------------------------------
A:-6--6-6--66-6-4--4-4--44-4-6--6-6--66-6-4--4-4--44-4-6--6-6--66-6-4--44-44-44-44-44-44-
E:---------------------------------------------------------------------------------------

Structure:
Riff 1 X 4
Riff 2 X 1
Riff 1 X 1
Riff 3 X 1
Riff 1 X 1
Riff 4 X 1
Riff 1 X 2
Riff 2 X 1
Riff 1 X 1
Riff 3 X 1
Riff 1 X 1
Riff 4 X 1
Riff 1 X 1
Riff 4 X 1
Riff 5 X 1
Riff 1 X 1
Riff 4 X 1
Riff 4 X 2

	  

Search Paypal
auto scroll beats size up size down change color hide chords drawings
tab show chords e-chords YouTube Clip e-chords hide all tabs e-chords go to top tab