Good Charlotte

home > Good Charlotte

The Day That I Die Bass Tab

Good Charlotte

Difficulty: nolevelnolevel

tuner correct add songbook print version text version save to e-mail
chordsukulelecavacokeyboardtabbassdrumsharmonicsflute Guitar Pro
chords

The Day That I Die

  		
Album: The Young And The Hopeless
Tuning: Standard (G, D, A, E)
Tabber: Mark Holm (markh0lm)

OK, so I guess your thinking "What the f*ck? There's no bass line in this song!"
And your right, there is no bass line here.. But I hate sitting on stage not doing
anything, so I fixed a bass line.. I'm really sure it's correct.
And very easy.

Intro
G|-----------------------------------------------------------------|
D|-----------------------------------------------------------------|
A|-----------------6---6--6---66-6-4---4--4---44-4-----------------|
E|-4---4--4---44-4---------------------------------4---4--4---44-4-|

G|-----------------------------------------------------------------|
D|-----------------------------------------------------------------|
A|-----------------6---6--6---66-6-4---4--4---44-4-----------------|
E|-4---4--4---44-4---------------------------------4---4--4---44-4-|

Verse
G|-----------------------------------------------------------------|
D|-----------------------------------------------------------------|
A|-----------------6---6--6---66-6-4---4--4---44-4-----------------|
E|-4---4--4---44-4---------------------------------4---4--4---44-4-|

G|-----------------------------------------------------------------|
D|-----------------------------------------------------------------|
A|-----------------6---6--6---66-6-4---4--4---44-4-----------------|
E|-4---4--4---44-4---------------------------------4---4--4---44-4-|

G|-------------------------------------------------------|
D|-------------------------------------------------------|
A|-3---3---3---3-3--33-33--3---4---4-4--44-44--4-4--44-4-|
E|-------------------------------------------------------|

G|-----------------------------------------------------------------|
D|-----------------------------------------------------------------|
A|-----------------6---6--6---66-6-4---4--4---44-4-----------------|
E|-4---4--4---44-4---------------------------------4---4--4---44-4-|

Prechorus
G|------------------------------------------|
D|------------------------------------------|
A|-6--6-6--66-6-4--4-4--44-4-6--6-6--66-6-4-|
E|------------------------------------------|

Chorus
G|-----------------------------------------------------------------|
D|-----------------------------------------------------------------|
A|-----------------6---6--6---66-6-4---4--4---44-4-6---6--6---66-6-|
E|-4---4--4---44-4-------------------------------------------------|

G|------------------------------------------------------------|
D|------------------------------------------------------------|
A|-----------------6---6--6---66-6-4---4--4---44-4--44--4--44-|
E|-4---4--4---44-4--------------------------------------------|

Verse
G|-----------------------------------------------------------------|
D|-----------------------------------------------------------------|
A|-----------------6---6--6---66-6-4---4--4---44-4-----------------|
E|-4---4--4---44-4---------------------------------4---4--4---44-4-|

G|-----------------------------------------------------------------|
D|-----------------------------------------------------------------|
A|-----------------6---6--6---66-6-4---4--4---44-4-----------------|
E|-4---4--4---44-4---------------------------------4---4--4---44-4-|

G|-------------------------------------------------------|
D|-------------------------------------------------------|
A|-3---3---3---3-3--33-33--3---4---4-4--44-44--4-4--44-4-|
E|-------------------------------------------------------|

Prechorus
G|------------------------------------------|
D|------------------------------------------|
A|-6--6-6--66-6-4--4-4--44-4-6--6-6--66-6-4-|
E|------------------------------------------|

Chorus
G|-----------------------------------------------------------------|
D|-----------------------------------------------------------------|
A|-----------------6---6--6---66-6-4---4--4---44-4-6---6--6---66-6-|
E|-4---4--4---44-4-------------------------------------------------|

G|------------------------------------------------------------|
D|------------------------------------------------------------|
A|-----------------6---6--6---66-6-4---4--4---44-4--44--4--44-|
E|-4---4--4---44-4--------------------------------------------|

Solo
G|-----------------------------------------------------------------|
D|-----------------------------------------------------------------|
A|-----------------6---6--6---66-6-4---4--4---44-4-----------------|
E|-4---4--4---44-4---------------------------------4---4--4---44-4-|

G|-------------------------------------------------------|
D|--------------------------------------------------6~~~-|
A|-----------------6---6--6---66-6-4---4----4----4-------|
E|-4---4--4---44-4---------------------------------------|

Extended prechorus
G|-----------------------------------------------------------------------|
D|------------------------------------------------------------------7~~~-|
A|-6--6-6--66-6-4--4-4--44-4-6--6-6--66-6-4--4-4--44-4-6--6-6--66-6------|
E|-----------------------------------------------------------------------|

Chorus
G|-----------------------------------------------------------------|
D|-----------------------------------------------------------------|
A|-----------------6---6--6---66-6-4---4--4---44-4-6---6--6---66-6-|
E|-4---4--4---44-4-------------------------------------------------|

G|------------------------------------------------------------|
D|------------------------------------------------------------|
A|-----------------6---6--6---66-6-4---4--4---44-4--44--4--44-|
E|-4---4--4---44-4--------------------------------------------|

Outro
G|------------------------------------------------------------|
D|------------------------------------------------------------|
A|-----------------6---6--6---66-6-4---4--4---44-4--44--4--44-|
E|-4---4--4---44-4--------------------------------------------|
					                     End
G|------------------------------------------------------------|    G|------|
D|------------------------------------------------------------|    D|------|
A|-----------------6---6--6---66-6-4---4--4---44-4--44--4--44-|    A|------|
E|-4---4--4---44-4--------------------------------------------|    E|-4~~~-|

All right! That's it! Not really a good song, but.. All the guys in my band wanted to play it, so I had to go along with it.. Anyways.. If you like Good Charlotte, enjoy.. If you don't, why the f*ck are you here?

                                               Mark Holm, 27. september 2003

	  

Search Paypal
auto scroll beats size up size down change color hide chords drawings
tab show chords e-chords YouTube Clip e-chords hide all tabs e-chords go to top tab