Glen Campbell

Love Me As Though There Were No Tomorrow

Glen Campbell

bass

by  BOMBAXXX

save to print version add songbook text version e-mail correct tuner
chordsukulelecavacokeyboardtabbassdrumsharmonicaflute Guitar Pro
close

there isn't a video lesson for this song

chords

Love Me As Though There Were No Tomorrow

	  		
Tuning: EADG 

G|----------------------------------------------------------------| 
D|----------------------------------------------------------------| 
A|3-----------3---3---------------3-----------3---3---------------| 
E|--------------------------------------------------------3-------| 

0:06 

G|----------------------------------------------------------------| 
D|----------------------------------------------------------------| 
A|3-----------3---3---------------3-----------3---3-------3-------| 
E|----------------------------------------------------------------| 

G|----------------------------------------------------------------| 
D|--------------------------------------------------------2---3---| 
A|5-----------5---5---------------5-----------0---5---------------| 
E|----------------------------------------------------------------| 

G|----------------------------------------------------------------| 
D|5-----------5---5-----------------------------------------------| 
A|--------------------------------------------------------2-------| 
E|--------------------------------3-----------3---3---------------| 

G|----------------------------------------------------------------| 
D|----------------------------------------------------------------| 
A|3-----------3---3---------------3---------------3-------2-------| 
E|--------------------------------------------3-------------------| 

0:31 

G|----------------------------------------------------------------| 
D|----------------------------------------------------------------| 
A|0-----------0---0---------------0-----------2---3-------5-------| 
E|----------------------------------------------------------------| 

G|----------------------------------------------------------------| 
D|2-----------2---2---------------2-----------2-----------2-------| 
A|------------------------------------------------2---------------| 
E|----------------------------------------------------------------| 

G|----------------------------------------------------------------| 
D|3-----------3---3---------------3-----------3---2---------------| 
A|--------------------------------------------------------3-------| 
E|----------------------------------------------------------------| 

G|----------------------------------------------------------------| 
D|----------------------------------------------------------------| 
A|1-----------1---1-------0-----------------------0-------2-------| 
E|--------------------------------3-----------3-------------------| 

0:56 

G|----------------------------------------------------------------| 
D|----------------------------------------------------------------| 
A|3-----------3---3---------------3-----------3---3-------3-------| 
E|----------------------------------------------------------------| 

G|----------------------------------------------------------------| 
D|--------------------------------------------------------2---3---| 
A|5-----------5---5---------------5-----------0---5---------------| 
E|----------------------------------------------------------------| 

G|----------------------------------------------------------------| 
D|5-----------5---5-----------------------------------------------| 
A|--------------------------------------------5---2---------------| 
E|--------------------------------3-----------------------3-------| 

G|----------------------------------------------------------------| 
D|----------------------------------------------------------------| 
A|0-----------0---0---------------0-----------0---2-------4-------| 
E|----------------------------------------------------------------| 

1:21 

G|----------------------------------------------------------------| 
D|--------------------------------5-----------5---5-------3-------| 
A|5-----------5---5-----------------------------------------------| 
E|----------------------------------------------------------------| 

G|----------------------------------------------------------------| 
D|2-----------2---0-------------------------------2---------------| 
A|------------------------1-------0-----------0-----------0---2---| 
E|----------------------------------------------------------------| 

G|----------------------------------------------------------------| 
D|----------------------------------------------------------------| 
A|3-------2-------0---------------5-----------5-------------------| 
E|------------------------------------------------3---------------| 

G|----------------------------------------------------------------| 
D|----------------------------------------------------------------| 
A|3-----------3---3---------------5-----------5-----------2-------| 
E|------------------------------------------------3---------------| 

1:45 

G|----------------------------------------------------------------| 
D|----------------------------------------------------------------| 
A|3-----------3---3---------------3-----------3---3-------3-------| 
E|----------------------------------------------------------------| 

G|----------------------------------------------------------------| 
D|--------------------------------------------------------2---3---| 
A|5-----------5---5---------------5-----------0---5---------------| 
E|----------------------------------------------------------------| 

G|----------------------------------------------------------------| 
D|5-----------5---5-----------------------------------------------| 
A|--------------------------------------------5---2---------------| 
E|--------------------------------3-----------------------3-------| 

G|----------------------------------------------------------------| 
D|----------------------------------------------------------------| 
A|0-----------0---0---------------0-----------0---2-------4-------| 
E|----------------------------------------------------------------| 

2:08 

G|----------------------------------------------------------------| 
D|--------------------------------5-----------5---5-------3-------| 
A|5-----------5---5-----------------------------------------------| 
E|----------------------------------------------------------------| 

G|----------------------------------------------------------------| 
D|2-----------2---0-------------------------------2---------------| 
A|------------------------1-------0-----------0-----------0---2---| 
E|----------------------------------------------------------------| 

G|----------------------------------------------------------------| 
D|----------------------------------------------------------------| 
A|3-------2-------0---------------5-----------5-------------------| 
E|------------------------------------------------3---------------| 

G|----------------------------------------------| 
D|----------------------------------------------| 
A|--------------------1---------------------3---| 
E|4---------------------------------------------| 
		  

See also:

bass Bob Lind - Dale Anne bass Rodney Atkins - Caught Up In The Country bass Brooks And Dunn - Missing You Bassline bass Garth Brooks - The Dance bass Glen Campbell - I'll Be Lucky Someday bass Brooks And Dunn - Neon Moon2
e-chords

Other versions:

bass Glen Campbell - Love Me As Though There Were No Tomorrow
auto scroll beats size up size down change color hide chords drawings
tab show chords e-chords YouTube Clip e-chords hide all tabs e-chords go to top tab

share