Porter Wagoner

I Just Came To Smell The Flowers

Porter Wagoner

bass

by  JOV-CORREA

save to print version add songbook text version e-mail correct tuner
chordsukulelecavacokeyboardtabbassdrumsharmonicaflute Guitar Pro
close

there isn't a video lesson for this song

chords

I Just Came To Smell The Flowers

	  		
Intro 
G|----------|----------|----------|------------| 
D|-2--------|----------|-2--------|---------1--| 
A|----------|-2--------|----------|-2---4------| 
E|----------|----------|----------|------------| 

Verse 
G|----------|-------------|----------|----------| 
D|-2--------|-2-----------|----------|-2--------| 
A|----------|-------------|----------|----------| 
E|----------|--------0-2-4|-5--------|----------| 

G|----------|------------|----------|------------| 
D|-2--------|-2---1------|----------|---------1--| 
A|----------|---------4--|-2--------|-2---4------| 
E|----------|------------|----------|------------| 

G|----------|-------------|----------|----------| 
D|-2--------|-2-----------|----------|-2--------| 
A|----------|-------------|----------|----------| 
E|----------|--------0-2-4|-5--------|----------| 

G|----------|------------|----------|------------| 
D|-2--------|---------1--|-2--------|-2----------| 
A|----------|-2---4------|----------|------------| 
E|----------|------------|----------|-----2---4--| 

Bridge 
G|----------|----------|----------|------------| 
D|----------|----------|-2--------|---------1--| 
A|----------|----------|----------|-2---4------| 
E|-5--------|-5--------|----------|------------| 

G|----------|----------|----------|------------| 
D|-2--------|-2--------|----------|---------1--| 
A|----------|----------|-2--------|-2---4------| 
E|----------|----------|----------|------------| 

Verse 
G|----------|------------|----------|----------| 
D|-2--------|-2----------|----------|-2--------| 
A|----------|------------|----------|----------| 
E|----------|-----2---4--|-5--------|----------| 

G|----------|-----------|----------|------------| 
D|-2--------|-----------|-2--------|---------1--| 
A|----------|-2---------|----------|-2---4------| 
E|----------|-----------|----------|------------| 

Narration 
G|----------|----------|----------|----------| 
D|-2--------|-2--------|----------|-2--------| 
A|----------|----------|----------|----------| 
E|----------|----------|-5--------|----------| 

G|----------|----------|----------|------------| 
D|-2--------|-2--------|----------|---------1--| 
A|----------|----------|-2--------|-2---4------| 
E|----------|----------|----------|------------| 

G|----------|----------|----------|----------| 
D|-2--------|-2--------|----------|-2--------| 
A|----------|----------|----------|----------| 
E|----------|----------|-5--------|----------| 

G|----------|----------|----------|------------| 
D|-2--------|----------|-2--------|---------1--| 
A|----------|-2--------|----------|-2---4------| 
E|----------|----------|----------|------------| 

Verse 
G|---------|------------|----------|----------| 
D|-2-------|-2----------|----------|-2--------| 
A|---------|------------|----------|----------| 
E|---------|---------2-4|-5--------|----------| 

G|----------|------------|----------|------------| 
D|-2--------|-2---1------|----------|---------1--| 
A|----------|---------4--|-2--------|-2---4------| 
E|----------|------------|----------|------------| 

Outro 
G|-----------1|------------|----------|----------| 
D|-2----------|------------|----------|-2--------| 
A|---------2--|------------|----------|----------| 
E|------------|-0---2---4--|-5--------|----------| 

G|----------|-----------|------------|--| 
D|-2--------|-----------|-2----------|-2| 
A|----------|-2---------|-----2------|--| 
E|----------|-----------|---------4--|--| 
		  

See also:

bass Chris Isaak - Wicked Games bass Brooks And Dunn - Missing You Bassline bass Jerry Reed - One Sweet Reason bass Billy Joe Shaver - Sail Of My Soul bass Alan Jackson - Chattahoochie bass Glen Campbell - Love Me As Though There Were No Tomorrow
e-chords

Other versions:

bass Porter Wagoner - I Just Came To Smell The Flowers
auto scroll beats size up size down change color hide chords drawings
tab show chords e-chords YouTube Clip e-chords hide all tabs e-chords go to top tab

share