Jerry Reed

She Understands Me

Jerry Reed

bass

by  TARIKIKE

save to print version add songbook text version e-mail correct tuner
chordsukulelecavacokeyboardtabbassdrumsharmonicaflute Guitar Pro
close

there isn't a video lesson for this song

chords

She Understands Me

	  		
Tuning: EADG 

G|------------5---------------------------------------------------| 
D|----5---------------5-------2---3---3---2---3-------2---3---5---| 
A|3---------------------------------------------------------------| 
E|----------------------------------------------------------------| 

G|------------5---------------------------------------------------| 
D|----5---------------5-------2---3---3---2---3-------2---3-/-5---| 
A|3---------------------------------------------------------------| 
E|----------------------------------------------------------------| 

0:09 

G|----------------------------------------------------------------| 
D|--------------------5-------2---3-----------3-------2---3---5---| 
A|3-----------3---------------------------------------------------| 
E|----------------------------------------------------------------| 

G|----------------------------------------------------------------| 
D|------------------------5---2---3-------2---3-------2---3---5---| 
A|3-----------3---------------------------------------------------| 
E|----------------------------------------------------------------| 

G|------------------------------------------------------------2---| 
D|------------------------5---2---3-----------3-------3---5-------| 
A|3-----------3---------------------------------------------------| 
E|----------------------------------------------------------------| 

G|3-------3---3---2-------2---2-----------------------------------| 
D|--------------------------------5-------5---5---5---------------| 
A|--------------------------------------------------------0---2---| 
E|----------------------------------------------------3-----------| 

0:29 

G|----------------------------------------------------------------| 
D|------------------------5---2---3-----------3-------2---3---5---| 
A|3-----------3---------------------------------------------------| 
E|----------------------------------------------------------------| 

G|----------------------------------------------------------------| 
D|--------------------5-------2---3-----------3-----------3---5---| 
A|3-----------3---------------------------------------3-----------| 
E|----------------------------------------------------------------| 

G|----------------------------------------------------------------| 
D|2---------------2-------2-------3-------3-------3-/-5---3---5---| 
A|------------2---------------2---------------3-------------------| 
E|----------------------------------------------------------------| 

G|----------------------------------------------------------------| 
D|2-------2-------2-------2---------------------------------------| 
A|------------2---------------2---0---0---0---0---0---0---2---4---| 
E|----------------------------------------------------------------| 

0:48 

G|----------------------------------------------------------------| 
D|----------------------------------------------------------------| 
A|5-------5-------5-------5-------4-------4-------4-------4-------| 
E|----------------------------------------------------------------| 

G|----------------------------------------------------------------| 
D|----------------------------------------------------------------| 
A|3-------3-------3-------3-------2-------2-------2-------2-------| 
E|----------------------------------------------------------------| 

G|----------------------------------------------------4---2-------| 
D|------------------------------------------------------------4---| 
A|1-------1-------1-------1-------0-------0-------0---------------| 
E|----------------------------------------------------------------| 

G|----------------------------4---2---2---2---2---2---------------| 
D|2-------2-------2-------2---------------------------------------| 
A|------------2---------------------------------------0---2---4---| 
E|----------------------------------------------------------------| 

1:06 

G|----------------------------------------------------------------| 
D|----------------------------------------------------------------| 
A|5-------5-------5-------5-------4-------4-------4-------4-------| 
E|----------------------------------------------------------------| 

G|----------------------------------------------------------------| 
D|------------------------------------------------------------3---| 
A|3-------3-------3-------3-------2-------2-------2-------2-------| 
E|----------------------------------------------------------------| 

G|----------------------------------------------------------------| 
D|4-------4-------4-------4-------------------4---------------4---| 
A|------------4---------------4---2-------2-------2-------2-------| 
E|----------------------------------------------------------------| 

G|----------------------------------------------------------------| 
D|3-------3-------3-------3---3---3/5-5---5---5-------------------| 
A|------------3-------3-----------------------------------0---2---| 
E|----------------------------------------------------3-----------| 

1:25 

G|----------------------------------------------------------------| 
D|------------------------5---2---3-----------3-----------3---5---| 
A|3-----------3---------------------------------------------------| 
E|----------------------------------------------------------------| 

G|----------------------------------------------------------------| 
D|------------------------5---2---3-------3---3-------2---3---5---| 
A|3-----------3-------3-------------------------------------------| 
E|----------------------------------------------------------------| 

G|------------------------------------------------------------2---| 
D|------------------------5---2---3-------3-------3-------5-------| 
A|3-----------3-------3-----------------------3-------------------| 
E|----------------------------------------------------------------| 

G|3-------3---3---2-------2---2-----------------------------------| 
D|--------------------------------5---5---5---5---5---------------| 
A|--------------------------------------------------------0---2---| 
E|----------------------------------------------------3-----------| 

1:44 

G|----------------------------------------------------------------| 
D|------------------------5---2---3-------2---3-----------3---5---| 
A|3-----------3-------3-------------------------------------------| 
E|----------------------------------------------------------------| 

G|----------------------------------------------------------------| 
D|------------------------5---2---3-----------3-------3---3---5---| 
A|3-----------3---------------------------------------------------| 
E|----------------------------------------------------------------| 

G|----------------------------------------------------------------| 
D|2-------2-------2-------2-------3-------3-------3-------3-------| 
A|------------2---------------2---------------3---------------3---| 
E|----------------------------------------------------------------| 

G|1-------1-------1---3---1-------3-------3-------3---5---3-------| 
D|------------1-------------------------------3---------------3---| 
A|----------------------------------------------------------------| 
E|----------------------------------------------------------------| 

G|5-------5---5---5-------------------| 
D|--------------------5---2---5-------| 
A|--------------------------------3---| 
E|------------------------------------| 
		  

See also:

bass Porter Wagoner - A Satisfied Mind bass Waylon Jennings - You're Gonna Wonder About Me bass Waylon Jennings - I Think Its Time She Learned bass Linda Ronstadt - I Will Always Love You bass Steve Earle - I Dont Wanna Lose You Yet bass Glen Campbell - Love Me As Though There Were No Tomorrow
e-chords

Other versions:

bass Jerry Reed - She Understands Me
auto scroll beats size up size down change color hide chords drawings
tab show chords e-chords YouTube Clip e-chords hide all tabs e-chords go to top tab

share