Glen Campbell

If You Go Away

Glen Campbell

bass

by  MARCNAGEL

save to print version add songbook text version e-mail correct tuner
chordsukulelecavacokeyboardtabbassdrumsharmonicaflute Guitar Pro
close

there isn't a video lesson for this song

chords

If You Go Away

	  		
Tuning: EADG 
G|------------------------------------------------------------------------------------------------| 
D|------------------------------------------------------------------------------------------------| 
A|3-----------------------3-----------------------3-----------------------3-----------------------| 
E|------------------------------------------------------------------------------------------------| 

0:10 

G|------------------------------------------------------------------------------------------------| 
D|------------------------------------------------------------------------------------------------| 
A|3-----------------------3-----------------------------------------------------------------------| 
E|------------------------------------------------1-----------------------1-----------------------| 

G|------------------------------------------------------------------------------------------------| 
D|------------------------------------------------1-----------------------1-----------------------| 
A|1-----------------------1-----------------------------------------------------------------------| 
E|------------------------------------------------------------------------------------------------| 

0:29 

G|------------------------------------------------------------------------------------------------| 
D|6-----------------------5-----------------------------------------------------------------------| 
A|------------------------------------------------3-----------------------1-----------------------| 
E|------------------------------------------------------------------------------------------------| 

G|------------------------------------------------------------------------------------------------| 
D|----------------------------------------------------------------------------------------5-------| 
A|------------------------------------------------3-----------------------3-----------------------| 
E|4-----------------------3-----------------------------------------------------------------------| 

0:49 

G|------------------------------------------------------------------------------------------------| 
D|------------------------------------------------------------------------------------------------| 
A|3-----------------------3-----------------------------------------------3-----------------------| 
E|------------------------------------------------3-----------------------------------------------| 

G|------------------------------------------------------------------------------------------------| 
D|------------------------------------------------------------------------1---------------5-------| 
A|3-----------------------------------------------1-----------------------------------------------| 
E|------------------------4-----------------------------------------------------------------------| 

1:07 

G|------------------------------------------------------------------------------------------------| 
D|----------------------------------------------------------------5-------------------------------| 
A|3-----------------------4-----------------------5-----------------------3-----------------------| 
E|------------------------------------------------------------------------------------------------| 

G|------------------------------------------------------------------------------------------------| 
D|1-----------------------3-----------------------5-----------------------------------------------| 
A|----------------------------------------------------------------5-------------------------------| 
E|------------------------------------------------------------------------3-----------------------| 

1:25 

G|------------------------------------------------------------------------------------------------| 
D|------------------------------------------------------------------------------------------------| 
A|3-----------------------3-----------------------------------------------------------------------| 
E|------------------------------------------------1-----------------------1-----------------------| 

G|------------------------------------------------------------------------------------------------| 
D|------------------------------------------------1-----------------------1-----------------------| 
A|1-----------------------1-----------------------------------------------------------------------| 
E|------------------------------------------------------------------------------------------------| 

1:44 

G|------------------------------------------------------------------------------------------------| 
D|6-----------------------5-----------------------------------------------------------------------| 
A|------------------------------------------------3-----------------------1-----------------------| 
E|------------------------------------------------------------------------------------------------| 

G|------------------------------------------------------------------------------------------------| 
D|------------------------------------------------------------------------------------------------| 
A|------------------------------------------------3-----------------------3-----------------------| 
E|4-----------------------3-----------------------------------------------------------------------| 



2:08 

G|------------------------------------------------------------------------------------------------| 
D|------------------------------------------------------------------------------------------------| 
A|4-----------------------2-----------------------------------------------------------------------| 
E|------------------------------------------------5-----------------------2-----------------------| 

G|------------------------------------------------------------------------------------------------| 
D|------------------------------------------------2-----------------------2-----------------------| 
A|2-----------------------2-----------------------------------------------------------------------| 
E|------------------------------------------------------------------------------------------------| 

2:28 

G|------------------------------------------------------------------------------------------------| 
D|------------------------------------------------------------------------------------------------| 
A|------------------------------------------------4-----------------------2-----------------------| 
E|5-----------------------4-----------------------------------------------------------------------| 

G|------------------------------------------------------------------------------------------------| 
D|------------------------------------------------------------------------------------------------| 
A|------------------------------------------------4-----------------------4-----------------------| 
E|5-----------------------4---------------------------------------------------------------4-------| 

2:46 

G|------------------------------------------------------------------------------------------------| 
D|------------------------------------------------------------------------------------------------| 
A|4-----------------------4-----------------------------------------------4-----------------------| 
E|------------------------------------------------4-----------------------------------------------| 

G|------------------------------------------------------------------------------------------------| 
D|------------------------------------------------------------------------2---------------6-------| 
A|4-----------------------------------------------2-----------------------------------------------| 
E|------------------------5-----------------------------------------------------------------------| 

3:05 

G|------------------------------------------------------------------------------------------------| 
D|----------------------------------------------------------------6-------------------------------| 
A|4-----------------------5-----------------------6-----------------------4-----------------------| 
E|------------------------------------------------------------------------------------------------| 

G|------------------------------------------------------------------------------------------------| 
D|2-----------------------4-----------------------6-----------------------------------------------| 
A|------------------------------------------------------------------------------------------------| 
E|------------------------------------------------------------------------4-----------------------| 

G|------------------------------------------------------------------------------------| 
D|------------------------------------------------------------------------------------| 
A|4-----------------------2-------------------------------------------------------4---| 
E|------------------------------------------------5-----------------------------------| 
		  

See also:

bass Porter Wagoner - A Satisfied Mind bass Waylon Jennings - You're Gonna Wonder About Me bass Waylon Jennings - I Think Its Time She Learned bass Linda Ronstadt - I Will Always Love You bass Steve Earle - I Dont Wanna Lose You Yet bass Glen Campbell - Love Me As Though There Were No Tomorrow
e-chords

Other versions:

bass Glen Campbell - If You Go Away
auto scroll beats size up size down change color hide chords drawings
tab show chords e-chords YouTube Clip e-chords hide all tabs e-chords go to top tab

share