Frank Black

Men In Black

Frank Black

bass

by  PAULANTUNES

save to print version add songbook text version e-mail correct tuner
chordsukulelecavacokeyboardtabbassdrumsharmonicaflute Guitar Pro
close

there isn't a video lesson for this song

chords

Men In Black

	  		
Intro 
   6/4       (x3)             4/4                     
G|-------------------------||-----------------|-----------------| 
D|-------------------------||-----------------|-----------------| 
A|---------6-6-6-6---------||-3-3-3-3-3-3-3-3-|-6-6-6-6-6-6-6-6-| 
E|-3-3-3-3---------6-6-6-6-||-----------------|-----------------| 
    1 & 2 & 3 & 4 & 5 & 6 &    1 & 2 & 3 & 4 &   1 & 2 & 3 & 4 & 

verse 1(x2) 
G|-----------------|-----------------|-----------------|-----------------| 
D|-----------------|-----------------|-----------------|-----------------| 
A|-----------------|-----------------|-----------------|-----------------| 
E|-6-6-6-6-6-6-6-6-|-6-6-6-6-6-6-6-6-|-8-8-8-8-8-8-8-8-|-8-8-8-8-8-8-8-8-| 
    1 & 2 & 3 & 4 &   1 & 2 & 3 & 4 &   1 & 2 & 3 & 4 &   1 & 2 & 3 & 4 & 

G|-----------------|-----------------|-----------------|-----------------| 
D|-----------------|-----------------|-----------------|-----------------| 
A|-----------------|-----------------|-6-6-6-6-6-6-6-6-|-6-6-6-6-6-6-6-6-| 
E|-3-3-3-3-3-3-3-3-|-3-3-3-3-3-3-3-3-|-----------------|-----------------| 
    1 & 2 & 3 & 4 &   1 & 2 & 3 & 4 &   1 & 2 & 3 & 4 &   1 & 2 & 3 & 4 & 

Pre-Chorus 
G|-----------------|-----------------|-----------------|-----------------| 
D|-----------------|-----------------|-----------------|-----------------| 
A|-----------------|-3-3-3-3-3-3-3-3-|-----------------|-6-6-6-6-6-6-6-6-| 
E|-3-3-3-3-3-3-3-3-|-----------------|-3-3-3-3-3-3-3-3-|-----------------| 
    1 & 2 & 3 & 4 &   1 & 2 & 3 & 4 &   1 & 2 & 3 & 4 &   1 & 2 & 3 & 4 & 

Chorus(x2) 
                                                           2/4 
G|-----------------|-----------------|-----------------|---------| 
D|-----------------|-----------------|-----------------|---------| 
A|-----------------|-----------------|---------6-6-6-6-|---------| 
6|-6-6-6-6-6-6-6-6-|-8-8-8-8-3-3-3-3-|-3-3-3-3---------|-8-8-8-8-| 
    1 & 2 & 3 & 4 &   1 & 2 & 3 & 4 &   1 & 2 & 3 & 4 &   1 & 2 &  

G|-----------------|-----------------|-----------------|-----------------| 
D|-----------------|-----------------|-----------------|-----------------| 
A|-----------------|-----------------|-----------------|-6-6-6-6---------| 
E|-6-6-6-6-6-6-6-6-|-8-8-8-8-3-3-3-3-|-3-3-3-3-6-6-6-6-|---------8-8-8-8-| 
    1 & 2 & 3 & 4 &   1 & 2 & 3 & 4 &   1 & 2 & 3 & 4 &   1 & 2 & 3 & 4 & 

PRE-VERSE 
G|-----------------|-----------------|-----------------|-----------------| 
D|-----------------|-----------------|-----------------|-----------------| 
A|-----------------|-----------------|-----------------|-----------------| 
E|-6-6-6-6-6-6-6-6-|-6-6-6-6-6-6-6-6-|-8-8-8-8-8-8-8-8-|-8-8-8-8-8-8-8-8-| 
    1 & 2 & 3 & 4 &   1 & 2 & 3 & 4 &   1 & 2 & 3 & 4 &   1 & 2 & 3 & 4 & 

G|-----------------|-----------------|-----------------|-----------------| 
D|-----------------|-----------------|-----------------|-----------------| 
A|-----------------|-----------------|-6-6-6-6-6-6-6-6-|-6-6-6-6-6-6-6-6-| 
E|-3-3-3-3-3-3-3-3-|-3-3-3-3-3-3-3-3-|-----------------|-----------------| 
    1 & 2 & 3 & 4 &   1 & 2 & 3 & 4 &   1 & 2 & 3 & 4 &   1 & 2 & 3 & 4 & 

verse 2 
G|-----------------|-----------------|-----------------|-----------------| 
D|-----------------|-----------------|-----------------|-----------------| 
A|-----------------|-----------------|-----------------|-----------------| 
E|-6-6-6-6-6-6-6-6-|-6-6-6-6-6-6-6-6-|-8-8-8-8-8-8-8-8-|-8-8-8-8-8-8-8-8-| 
    1 & 2 & 3 & 4 &   1 & 2 & 3 & 4 &   1 & 2 & 3 & 4 &   1 & 2 & 3 & 4 & 

G|-----------------|-----------------|-----------------|-----------------| 
D|-----------------|-----------------|-----------------|-----------------| 
A|-----------------|-----------------|-6-6-6-6-6-6-6-6-|-6-6-6-6-6-6-6-6-| 
E|-3-3-3-3-3-3-3-3-|-3-3-3-3-3-3-3-3-|-----------------|-----------------| 
    1 & 2 & 3 & 4 &   1 & 2 & 3 & 4 &   1 & 2 & 3 & 4 &   1 & 2 & 3 & 4 & 

Pre-Chorus 2 
         ( x3 ) 
G|-----------------||-----------------| 
D|-----------------||-----------------| 
A|-----------------||-6-6-6-6-6-6-6-6-| 
E|-3-3-3-3-3-3-3-3-||-----------------| 
    1 & 2 & 3 & 4 &    1 & 2 & 3 & 4 & 

Chorus 2 
                                                            2/4 
G|-----------------|-----------------|-----------------|---------| 
D|-----------------|-----------------|-----------------|---------| 
A|-----------------|-----------------|---------6-6-6-6-|---------| 
6|-6-6-6-6-6-6-6-6-|-8-8-8-8-3-3-3-3-|-3-3-3-3---------|-8-8-8-8-| 
    1 & 2 & 3 & 4 &   1 & 2 & 3 & 4 &   1 & 2 & 3 & 4 &   1 & 2 &  

G|-----------------|-----------------|-----------------|-----------------| 
D|-----------------|-----------------|-----------------|-----------------| 
A|-----------------|-----------------|-----------------|-6-6-6-6---------| 
E|-6-6-6-6-6-6-6-6-|-8-8-8-8-3-3-3-3-|-3-3-3-3-6-6-6-6-|---------8-8-8-8-| 
    1 & 2 & 3 & 4 &   1 & 2 & 3 & 4 &   1 & 2 & 3 & 4 &   1 & 2 & 3 & 4 & 

Bridge 
   6/4       (x3)             4/4   (x2)               (x2) 
G|-------------------------||-----------------||-----------------| 
D|-------------------------||-----------------||-----------------| 
A|---------6-6-6-6---------||-3-3-3-3-3-3-3-3-||-6-6-6-6-6-6-6-6-| 
E|-3-3-3-3---------6-6-6-6-||-----------------||-----------------| 
    1 & 2 & 3 & 4 & 5 & 6 &    1 & 2 & 3 & 4 &    1 & 2 & 3 & 4 & 

verse 3 
G|-----------------|-----------------|-----------------|-----------------| 
D|-----------------|-----------------|-----------------|-----------------| 
A|-----------------|-----------------|-----------------|-----------------| 
E|-6-6-6-6-6-6-6-6-|-6-6-6-6-6-6-6-6-|-8-8-8-8-8-8-8-8-|-8-8-8-8-8-8-8-8-| 
    1 & 2 & 3 & 4 &   1 & 2 & 3 & 4 &   1 & 2 & 3 & 4 &   1 & 2 & 3 & 4 & 

G|-----------------|-----------------|-----------------|-----------------| 
D|-----------------|-----------------|-----------------|-----------------| 
A|-----------------|-----------------|-6-6-6-6-6-6-6-6-|-6-6-6-6-6-6-6-6-| 
E|-3-3-3-3-3-3-3-3-|-3-3-3-3-3-3-3-3-|-----------------|-----------------| 
    1 & 2 & 3 & 4 &   1 & 2 & 3 & 4 &   1 & 2 & 3 & 4 &   1 & 2 & 3 & 4 & 

OUT-Chorus(x3) 
                                                            2/4 
G|-----------------|-----------------|-----------------|---------| 
D|-----------------|-----------------|-----------------|---------| 
A|-----------------|-----------------|---------6-6-6-6-|---------| 
6|-6-6-6-6-6-6-6-6-|-8-8-8-8-3-3-3-3-|-3-3-3-3---------|-8-8-8-8-| 
    1 & 2 & 3 & 4 &   1 & 2 & 3 & 4 &   1 & 2 & 3 & 4 &   1 & 2 &  
                                                         _________________ 
  4/4                                                   /1,2 
G|-----------------|-----------------|-----------------|-----------------| 
D|-----------------|-----------------|-----------------|-----------------| 
A|-----------------|-----------------|-----------------|-6-6-6-6---------| 
E|-6-6-6-6-6-6-6-6-|-8-8-8-8-3-3-3-3-|-3-3-3-3-4-4-4-4-|---------8-8-8-8-| 
    1 & 2 & 3 & 4 &   1 & 2 & 3 & 4 &   1 & 2 & 3 & 4 &   1 & 2 & 3 & 4 & 
   ___________________________________ 
  /3 
G|-----------------|-----------------| 
D|-----------------|-----------------| 
A|-6-6-6-6---------|-----------------| 
E|----------8------|(8)--------------| 
    1 & 2 & 3 & 4 &   1 & 2 & 3 & 4 & 



************************************ 

| /    Slide up 
| (n)  Ghost note 

************************************ 
		  

See also:

bass Guns N' Roses - Bad Apples bass 4 Non Blondes - waths up bass Guns N' Roses - Duff Solo Tokyo bass R.E.M. - Losing my religion bass 4 Non Blondes - What`s up (ver. 1) bass Foo Fighters - All My Life
e-chords

Other versions:

bass Frank Black - Men In Black
auto scroll beats size up size down change color hide chords drawings
tab show chords e-chords YouTube Clip e-chords hide all tabs e-chords go to top tab

share