Foo Fighters

All My Life (ver. 2)

Foo Fighters

bass

save to print version add songbook text version e-mail correct tuner
chordsukulelecavacokeyboardtabbassdrumsharmonicaflute Guitar Pro
close

there isn't a video lesson for this song

chords

All My Life (ver. 2)

	  		





 
Album: One By One
 
Tabber: DarksideDragon

Tuning: Normal (E A D G)

any comments? contact me at [email protected]

~ = let ring
XhY = play X and hammer onto Y
XpY = play X and pull-off onto Y
X/Y = slide from X up to Y
X\Y = slide from X down to Y
* = bend
X> = repeat X several times
(X) = play X gently and quickly

Intro is guitar only. Bass joins in with all the other instruments


Verse:

G|-------------------------------------------------------------
D|-------------------------------------------------------------  x5
A|--------------------------------------------------------1-1-1
E|-3-3-3-0--3-3-3-0--3-3-3--5-5-5\3-3-3-0--3-3-3-0--3-3-3------

G|-------------------------------------------------------------
D|-------------------------------------------------------------  x1
A|-------------------------------------------------------------
E|-3-3-3-0--3-3-3-0--3-0---------------------------------------

One By One hidden up my sleve

Chorus:

G|-------------------------------------------------------------
D|-------------------------------------------------------------  x2
A|--------------------------------------6----------------------
E|-3>-(1)-3>--0-0-0-0-0-1-1-1-1-1/6-6-8---8--------------------


G|-------------------------------------------------------------
D|-------------------------------------------------------------  x1
A|--------------------------------------------------------1-1-1
E|-3-3-3-0--3-3-3-0--3-3-3--5-5-5\3-3-3-0--3-3-3-0--3-3-3------

Then Verse and chorus again

After second chorus there is a stop and its then just the guitar.

All my life i've been searching for something, something never comes never leads to nothing,
nothing satisfies but i'm getting close, closer to the prize at the end of the rope.

Then the bass joins back in


G|-------------------------------------------------------------
D|-------------------------------------------------------------  keep playing this  until dave
A|-------------------------------------------------------------  sings 'done' really high
E|-3-3--3-3-3--3-3-3--3-3-3--3-3-3--3-3-3--3-3-3--3-3-3--3-3-3-

Then strum continually on the 3rd fret on the E string.

Once the drums join in, go back to the original pattern. I'm not sure how many times you need
to play it, so you'll have to work it out. Just before Dave starts singing again you lead in with:


G|-------------------------------------------------------------
D|-------------------------------------------------------------
A|-0/10-10-10-10-10-10-----------------------------------------
E|-------------------------------------------------------------

Then go back to playing the 3rd fret E string and then back to the chorus.

Outro:


G|------------------------------------------------------------------------------
D|------------------------------------------------------------------------------  x2
A|------------------------------------------------------------------------------
E|-10-10--10-10-10--10-10-10--10-10-10--10-10-10--10-10-10--10-10-10--10-10-10--


G|--------
D|--------
A|--------
E|-10-10----

See also:

bass Eiffel 65 - Im Blue da Ba Dee bass Aerosmith - Cryin' bass Alan Parsons Project - Eye In The Sky bass Guns N' Roses - Welcome To The Jungle (ver. 2) bass Live - Dolphin“s Cry bass Elvis Presley - Hounddog
e-chords

Other versions:

bass Foo Fighters - All My Life bass Foo Fighters - All My Life (ver. 2) bass Foo Fighters - All My Life (ver. 3)
auto scroll beats size up size down change color hide chords drawings
tab show chords e-chords YouTube Clip e-chords hide all tabs e-chords go to top tab

share