Creedence Clearwater Revival

home > Creedence Clearwat...

Sweet Hitch-hiker Bass Tab

Creedence Clearwater Revival

Difficulty: nolevelnolevel

by brunblazkowski

tuner correct add songbook print version text version save to e-mail
chordsukulelecavacokeyboardtabbassdrumsharmonicsflute Guitar Pro
chords

Sweet Hitch-hiker

  		
Please help me with this. I really love this song and can't find  
it anywhere. This is my very first tab and need somebody's help.   

Verse 
G|-------------------------------------------------| 
D|-------------------------------------------------| 
A|-5-5-5-5---------5-5-5-5-------------5-5-5-5-5---| 
E|---------3-3-3-3---------3-3-3-3-3-3-------------| 

G|-------------------------------------------------| 
D|-------------------------------------------------| 
A|-3-3-3-3-----------------3-3-3-3-5-5-5-5---------| 
E|---------3-3-3-3-3-3-3-3-------------------------| 

Chorus 
G|-------------------------------------------------| 
D|-------------------------------------------------| 
A|-0-0-0-0---------5-5-5-5-0-0-0-0---------5-5-5-5-| 
E|---------3-3-3-3-----------------3-3-3-3---------| 

Verse 
G|-------------------------------------------------| 
D|-------------------------------------------------| 
A|-5-5-5-5---------5-5-5-5-------------5-5-5-5-5---| 
E|---------3-3-3-3---------3-3-3-3-3-3-------------| 

G|-------------------------------------------------| 
D|-------------------------------------------------| 
A|-3-3-3-3---------3-3-3-3-0-0-0-0-5-5-5-5---------| 
E|---------3-3-3-3---------------------------------| 

Chorus 
SOLO during D  C  G  C  A  D 
G|-------------------------------------------------| 
D|-------------------------------------------------| 
A|-5-5-5-5-3-3-3-3---------3-3-3-3-0-0-0-0-5-5-5-5-| 
E|-----------------3-3-3-3-------------------------| 

Verse: X2 
G|-------------------------------------------------| 
D|-------------------------------------------------| 
A|-5-5-5-5---------5-5-5-5-------------5-5-5-5-5---| 
E|---------3-3-3-3---------3-3-3-3-3-3-------------| 

G|-------------------------------------------------| 
D|-------------------------------------------------| 
A|-3-3-3-3---------3-3-3-3-0-0-0-0-5-5-5-5---------| 
E|---------3-3-3-3---------------------------------| 

Chorus 
SOLO during D  C  G  C  A  D 
G|-------------------------------------------------| 
D|-------------------------------------------------| 
A|-5-5-5-5-3-3-3-3---------3-3-3-3-0-0-0-0-5-5-5-5-| 
E|-----------------3-3-3-3-------------------------| 
	  

Full key step upFull key step up
Half key step upHalf key step up
Half key step downHalf key step down
Full key step downFull key step down
Search Paypal
auto scroll beats size up size down change color hide chords drawings
tab show chords e-chords YouTube Clip e-chords hide all tabs e-chords go to top tab