Jimi Hendrix

home > Jimi Hendrix

Hey Joe Bass Tab

Jimi Hendrix

Difficulty: BeginnerBeginner

by pqnino2003

tuner correct add songbook print version text version save to e-mail
chordsukulelecavacokeyboardtabbassdrumsharmonicsflute Guitar Pro
chords

Hey Joe

Year: 1997 - Album: Experience Hendrix: The Best of Jimi Hendrix

(Bill Roberts)

  		[email protected] 

Introdução 
g|------------|--------------------------|--------7----7----| 
d|------------|--------------------------|-----7h9---7h9--9-| 
a|------------|--------------------------|------------------| 
e|------------|--------------------------|------------------| 

1st and 2nd verso 
||--------------|-----------------|-------------------|------------------| 
||--------------|-----------------|-------------------|------------------| 
||-3---3---2--3-|-5----5-----5--6-|----7-7------5---5-|-7--7--7--7--7-5--| 
||-------3------|--------5-5------|-----------7---7---|------------------| 

|--------------|------------------|-------------------|-------------------| 
|--------------|------------------|-------------------|-------------------| 
|-3---3---2--3-|-5----5----5-5--6-|----7-7------5---5-|-7--7--7--7--7-7--=| 
|-------3------|---------5--------|-----------7---7---|-------------------| 

|---------------|-----------------|----------------------|-------------------------| 
|---------------|-----------------|----------------------|-------------------------| 
|-3---3---2--3--|-5----5-----5--6-|---7-7-7------5---5-6-|-7--7--7--7--7--7--7--7--| 
|-------3-------|--------5-5------|-----------7---7------|-------------------------| 

|-----------------|----------------------|--------------------|------------------|| 
|-----------------|----------------------|--------------------|------------------|| 
|-3---3-----2-2-3-|-5--5--5--5-----4-5/6-|--7--7--7---5---5-6-|-7-7-7-7-7-7-7-7--|| 
|-------3-3-------|------------5-5-------|----------7---7-----|------------------|| 

Guitarra Solo 
||------------------|-------------------|------------------------| 
||------------------|-------------------|------------------------| 
||-3--3-3-----2-3-4-|-5----5-----4-5--6-|-7-7-7-7--7-----5---5h6-| 
||--------3---------|--------5-5--------|--------------7---7-----| 

|----------------------------------|| 
|----------------------------------|| 
|---7--7-7-7-7-7-7-7-7-7-7-7-7-7-7-|| 
|----------------------------------|| 

|----------------|-----------------|------------------| 
|----------------|-----------------|------------------| 
|-3--------2-3-4-|-5---------4-5-6-|-7-7--7--5----5-6-| 
|--0-1-2-3-------|---2-3-4-5-------|--------7---7-----| 

|---------------------------------------| 
|---------------------------------------| 
|----7--7-7-7--7--5/7-7-7-7-5/7--7-7-7--| 
|---------------------------------------| 

|--------------|-------------------|--------------------------|---------------------| 
|--------------|-------------------|--------------------------|---------------------| 
|-3---3---2--3-|-5---5-5-----4-5-6-|--7-7-7--7-7-7----5---5h6-|-7--7--7--7--7-7-7-7-| 
|-------3------|---------5-5-------|----------------7---7-----|---------------------| 

|----------------|------------------|-------------------|-------------------| 
|----------------|------------------|-------------------|-------------------| 
|-3---3---2--3-4-|-5----5----5-5--6-|----7-7------5---5-|-7--7--7--7--7-7--| 
|-------3--------|---------5--------|-----------7---7---|-------------------| 

|---------------|-----------------|----------------------|--------------------------| 
|---------------|-----------------|----------------------|--------------------------| 
|-3---3---2--3--|-5----5-----5--6-|---7-7-7------5---5-6-|-7--7--7--7--7--7--7--7---| 
|-------3-------|--------5-5------|-----------7---7------|--------------------------| 

|------------------| 
|------------------| 
|-7-7-7-7-7-7-7-7--| 
|------------------| 

|-------------------|-----------------------|----------------------| 
|-------------------|-----------------------|----------------------| 
|-3---3-------2-3-4-|-5--5--5/7-------4-5-6-|--7--7--7-7---5---5-6-| 
|-------3-3-3-------|-----------5-5-5-------|------------7---7-----| 

|------------------------------------------|-------------------|------------------| 
|------------------------------------------|-------------------|------------------| 
|---5/7-7-7-7--5/7--7-7-7-5/7--7-7-7--5/7--|--3---------2-3-4--|-5---------4-5-6--| 
|------------------------------------------| ---0-1-2-3--------|---2-3-4-5--------| 

|---------------------------|--------------------------|---------------------| 
|---------------------------|--------------------------|---------------------| 
|---7---7-7---7-7---5---5/7-|--7-7-7-5/7--7-7-7-7-7-7-|--3--3-3------2--3/5--| 
|-----------------7---7-----|-------------------------|----------3-3--------| 

|--------------------------|----------------------|------------------------------| 
|--------------------------|----------------------|------------------------------| 
|----5--5--5/7-----4-5-6/7-|-7-7-7-7-7----5---5-6-|-7-7-7-5/7-7-7-5/7-7-7-5/7-7--| 
|--------------5-5---------|------------7---7-----|------------------------------| 

Outro 
|----------------|-----------------|------------------| 
|----------------|-----------------|------------------| 
|-3--------2-3-4-|-5---------4-5-6-|-7-7--7--5----5-6-| 
|--0-1-2-3-------|---2-3-4-5-------|--------7---7-----| 

|---------------------------------------| 
|---------------------------------------| 
|----7--7-7-7--7--5/7-7-7-7-5/7--7-7-7--| 
|---------------------------------------| 
	  

Search Paypal
auto scroll beats size up size down change color hide chords drawings
tab show chords e-chords YouTube Clip e-chords hide all tabs e-chords go to top tab