Creedence Clearwater Revival

home > Creedence Clearwat...

Down On The Corner Bass Tab

Creedence Clearwater Revival

Difficulty: BeginnerBeginner

tuner correct add songbook print version text version save to e-mail
chordsukulelecavacokeyboardtabbassdrumsharmonicsflute Guitar Pro
chords

Down On The Corner

  		
Riff 1/Intro 
G---------------------- 
D---------------------- 
A-3-0---3-3-0-----2-3-3 
E-----3-------3-3------ 

Riff 2 
G---------------------- 
D-3-0---3-3-0-----2-5-5 
A-----3-------3-3------ 
E---------------------- 

Riff 3 
G------------------------------- 
D-3-3-3--------2-5-------------2 
A--------3-3-3---------3-3-3-3-- 
E------------------3-3---------- 

Riff 4/Outro 
G----------------------------------- 
D----------------------------------- 
A-3-3-3-3-3--3-3-33-----------3-3-33 
E-------------------3-3-3-3-3------- 

	  

Search Paypal
auto scroll beats size up size down change color hide chords drawings
tab show chords e-chords YouTube Clip e-chords hide all tabs e-chords go to top tab