Brenda Lee

home > Brenda Lee

The End Of The World Bass Tab

Brenda Lee

Difficulty: nolevelnolevel

by tercmoraes

tuner correct add songbook print version text version save to e-mail
chordsukulelecavacokeyboardtabbassdrumsharmonicsflute Guitar Pro
chords

The End Of The World

  		
Intro 
G:|------------|------------|------------|------------| 
D:|7>----------|------------|------------|----------6-| 
A:|------------|7>----------|9>----------|7>----7-9---| 
E:|------------|------------|------------|------------| 
   1 & 2 & 3 &  1 & 2 & 3 &  1 & 2 & 3 &  1 & 2 & 3 & 

Chorus 1 
G:|------------|------------|------------|------------|------------|------------| 
D:|7>----------|7>----------|------------|------------|----------7-|------7-----| 
A:|------------|------------|7>----------|7>--------8-|9>----------|9>--------9-| 
E:|------------|------------|------------|------------|------------|------------| 
   1 & 2 & 3 &  1 & 2 & 3 &  1 & 2 & 3 &  1 & 2 & 3 &  1 & 2 & 3 &  1 & 2 & 3 & 

G:|------------|------------|------------|------------|------------|------------| 
D:|------------|------------|------------|------------|------------|------------| 
A:|----------7-|------7---6-|5>----------|--------7---|----------7-|9>----------| 
E:|9>----------|9>----------|------------|7>----------|9>------9---|------------| 
   1 & 2 & 3 &  1 & 2 & 3 &  1 & 2 & 3 &  1 & 2 & 3 &  1 & 2 & 3 &  1 & 2 & 3 & 

G:|------------|------------|------------|------------| 
D:|------------|------------|------------|----------6-| 
A:|------------|9>--------9-|--------4-5-|7>----7-9---| 
E:|7>----------|------------|7>----------|------------| 
   1 & 2 & 3 &  1 & 2 & 3 &  1 & 2 & 3 &  1 & 2 & 3 & 

Chorus 2 
G:|------------|------------|------------|------------|------------|------------| 
D:|7>----------|7>----------|------------|------------|----------7-|------7-----| 
A:|------------|------------|7>----------|7>----------|9>----------|9>--------9-| 
E:|------------|------------|------------|------------|------------|------------| 
   1 & 2 & 3 &  1 & 2 & 3 &  1 & 2 & 3 &  1 & 2 & 3 &  1 & 2 & 3 &  1 & 2 & 3 & 

G:|------------|------------|------------|------------|------------|------------| 
D:|------------|------------|------------|------------|------------|------------| 
A:|----------7-|------7---6-|5>----------|------------|----------7-|9>----------| 
E:|9>----------|9>----------|------------|7>----------|9>----------|------------| 
   1 & 2 & 3 &  1 & 2 & 3 &  1 & 2 & 3 &  1 & 2 & 3 &  1 & 2 & 3 &  1 & 2 & 3 & 

G:|------------|------------|------------|------------| 
D:|--------7---|------------|------------|------------| 
A:|----------9-|7>--------7-|0>----------|0>----0-2-4-| 
E:|7>----------|------7-9---|------------|------------| 
   1 & 2 & 3 &  1 & 2 & 3 &  1 & 2 & 3 &  1 & 2 & 3 & 

Verse 
G:|------------|------------|------------|------------|------------|------------| 
D:|------------|------------|7>----------|7>----------|------------|------6>----| 
A:|55>---------|5>----------|------------|------------|7>----------|7>----------| 
E:|------------|------------|------------|------------|------------|------------| 
   1 & 2 & 3 &  1 & 2 & 3 &  1 & 2 & 3 &  1 & 2 & 3 &  1 & 2 & 3 &  1 & 2 & 3 & 

G:|------------|-------------|------------|------------|------------|------------| 
D:|7>----------|7>----7-9-10-|------------|------------|------------|-----7------| 
A:|------------|-------------|------------|-----7------|9>----------|9>----------| 
E:|------------|-------------|9>----------|9>----------|------------|------------| 
   1 & 2 & 3 &  1 & 2 & 3 &  1 & 2 & 3 &  1 & 2 & 3 &  1 & 2 & 3 &  1 & 2 & 3 & 

G:|------------|------------|------------|------------| 
D:|9>----------|------------|------------|----------6-| 
A:|------------|9>--------7-|--------7-9-|7>----7-9---| 
E:|------------|------7-9---|7>----------|------------| 
   1 & 2 & 3 &  1 & 2 & 3 &  1 & 2 & 3 &  1 & 2 & 3 & 

Chorus 3 
G:|------------|------------|------------|------------|------------|------------| 
D:|7>----------|7>----------|------------|------------|------------|------7-----| 
A:|------------|------------|7>----------|7>--------8-|9>----------|9>----------| 
E:|------------|------------|------------|------------|------------|------------| 
   1 & 2 & 3 &  1 & 2 & 3 &  1 & 2 & 3 &  1 & 2 & 3 &  1 & 2 & 3 &  1 & 2 & 3 & 

G:|------------|------------|------------|------------|------------|------------| 
D:|------------|------------|------------|------------|------------|------------| 
A:|----------7-|------7---6-|5>----------|--------7---|--------7-8-|9>----9-7---| 
E:|9>----------|9>----------|------------|7>----------|9>----9-----|----------9-| 
   1 & 2 & 3 &  1 & 2 & 3 &  1 & 2 & 3 &  1 & 2 & 3 &  1 & 2 & 3 &  1 & 2 & 3 & 

G:|------------|------------|-------------|------------| 
D:|--------7---|------------|7>----7-9-11-|--------5-6-| (modulates 
A:|----------9-|7>--------9-|-------------|8-8-8-8-----|  to C minor) 
E:|7>----------|------------|-------------|------------| 
   1 & 2 & 3 &  1 & 2 & 3 &  1 & 2 & 3 &   1 & 2 & 3 & 

Chorus 4 
G:|------------|------------|------------|------------|-------------|-------------| 
D:|------------|------------|------------|------------|-------------|-------------| 
A:|------------|------------|8>----------|8>----------|10>----------|10>----------| 
E:|6>----------|6>----------|------------|------------|-------------|-------------| 
   1 & 2 & 3 &  1 & 2 & 3 &  1 & 2 & 3 &  1 & 2 & 3 &  1  & 2 & 3 &  1  & 2 & 3 & 

G:|-------------|-------------|------------|------------|------------|------------| 
D:|-------------|-------------|------------|------------|------------|------------| 
A:|-------------|-------------|6>------6-5-|------------|5>----5-6-8-|10>---------| 
E:|10>----------|10>----------|------------|8>----------|------------|------------| 
   1  & 2 & 3 &  1  & 2 & 3 &  1 & 2 & 3 &  1 & 2 & 3 &  1 & 2 & 3 &  1 & 2 & 3 & 

   (play softly) 
...ended     ...said                       ...good 
G:|------------|------------|------------|------------| 
D:|------------|------------|------------|------------| 
A:|------------|8>----------|-----R------|-----R------| 
E:|8>----------|------------|------------|------------| 
   1 & 2 & 3 &  1  & 2 & 3 &  1 & 2 & 3 &  1 & 2 & 3 & 

Outro 
                                       (tempo slows) 
...bye                                        ...good bye 
G:|------------|-------------|------------|------------|------------| 
D:|8>--------8-|-------------|------------|------------|------------| 
A:|------------|5>-----------|6>----------|8>----------|------------| 
E:|------------|-------------|------------|------------|6>----------| 
   1 & 2 & 3 &  1  & 2 & 3 &  1 & 2 & 3 &  1 & 2 & 3 &  1 & 2 & 3 & 


************************************ 

|| repeat between || as indicated       h hammer on             ~ vibrato 
/ slide up                              p pull off 
\ slide down                            1. dotted note 
> legato (let note ring)                11 fret one, twice 
! staccato (full stop mute)             11 fret eleven 
R rest                                  x ghost note 

************************************ 
	  

Full key step upFull key step up
Half key step upHalf key step up
Half key step downHalf key step down
Full key step downFull key step down
Search Paypal
auto scroll beats size up size down change color hide chords drawings
tab show chords e-chords YouTube Clip e-chords hide all tabs e-chords go to top tab