Brenda Lee

home > Brenda Lee

All Alone Am I Bass Tab

Brenda Lee

Difficulty: nolevelnolevel

by renejunior

tuner correct add songbook print version text version save to e-mail
chordsukulelecavacokeyboardtabbassdrumsharmonicsflute Guitar Pro
chords

All Alone Am I

  		
G|3-------------------2---------------------------------------------------------------------------| 
D|------------------------5-------------------5---------------------------3-------------------3---| 
A|------------------------------------------------3-------------------3---------------------------| 
E|------------------------------------------------------------------------------------------------| 

G|------------------------3-------------------3---2-----------------------------------------------| 
D|5-------------------5---------------------------------------------------------------------------| 
A|--------------------------------------------------------------------1---0-----------------------| 
E|------------------------------------------------------------------------------------------------| 

0:20 

G|3-------------------2---------------------------------------------------------------------------| 
D|------------------------5-------------------5---------------------------3-------------------3---| 
A|------------------------------------------------3-------------------3---------------------------| 
E|------------------------------------------------------------------------------------------------| 

G|------------------------------------------------------------------------------------------------| 
D|5-------------------5---------------------------3-----------------------3-----------------------| 
A|------------------------3-------------------3---------------------------------------------------| 
E|------------------------------------------------------------------------------------------------| 

0:34 

G|--------------------2---5-----------2-------5-----------------------2---5-----------2-------5---| 
D|3-----------------------------------------------3-----------------------------------------------| 
A|------------------------------------------------------------------------------------------------| 
E|------------------------------------------------------------------------------------------------| 

G|--------------------2---5-----------2-------5---------------------------------------------------| 
D|3-------------------------------------------------------------------2---5-----------2-----------| 
A|------------------------------------------------3-----------------------------------------------| 
E|------------------------------------------------------------------------------------------------| 

0:49 

G|------------------------2-------------------2---------------------------2-------------------2---| 
D|0-------------------3---------------3-----------0-------------------3---------------3-----------| 
A|------------------------------------------------------------------------------------------------| 
E|------------------------------------------------------------------------------------------------| 

G|------------------------2-------------------2---------------------------------------------------| 
D|0-------------------3---------------3-----------------------------------2-----------------------| 
A|------------------------------------------------0-------------------4---------------0-----------| 
E|------------------------------------------------------------------------------------------------| 

1:03 

G|3-------------------2---------------------------------------------------------------------------| 
D|------------------------5-------------------5---------------------------3-------------------3---| 
A|------------------------------------------------3-------------------3---------------------------| 
E|------------------------------------------------------------------------------------------------| 

G|------------------------3-------------------3---2-----------------------------------------------| 
D|5-------------------5---------------------------------------------------------------------------| 
A|--------------------------------------------------------------------1---0-----------------------| 
E|------------------------------------------------------------------------------------------------| 

1:17 

G|3-------------------2---------------------------------------------------------------------------| 
D|------------------------5-------------------5---------------------------3-----------------------| 
A|------------------------------------------------3-------------------3---------------------------| 
E|------------------------------------------------------------------------------------------------| 

G|------------------------------------------------------------------------------------------------| 
D|5-------------------5---------------------------3-----------------------3-----------------------| 
A|------------------------3-----------------------------------------------------------------------| 
E|------------------------------------------------------------------------------------------------| 

1:32 

G|------------------------------------------------------------------------------------------------| 
D|3-----------------------3-----------------------3-----------------------3-----------------------| 
A|------------------------------------------------------------------------------------------------| 
E|------------------------------------------------------------------------------------------------| 

G|------------------------------------------------------------------------------------------------| 
D|3-----------------------3-----------------------5-----------------------------------------------| 
A|------------------------------------------------------------------------3-----------------------| 
E|------------------------------------------------------------------------------------------------| 

1:46 

G|------------------------2-------------------2---------------------------2-------------------2---| 
D|0-------------------3---------------3-----------0-------------------3---------------3-----------| 
A|------------------------------------------------------------------------------------------------| 
E|------------------------------------------------------------------------------------------------| 

G|------------------------------------------------------------------------------------------------| 
D|5-----------------------5-----------------------------------------------------------------------| 
A|------------------------------------------------3-----------------------3-----------------------| 
E|------------------------------------------------------------------------------------------------| 

2:01 

G|3-------------------2---------------------------------------------------------------------------| 
D|------------------------5-------------------5---------------------------3-------------------3---| 
A|------------------------------------------------3-------------------3---------------------------| 
E|------------------------------------------------------------------------------------------------| 

G|------------------------3-------------------3---2-----------------------------------------------| 
D|5-------------------5---------------------------------------------------------------------------| 
A|--------------------------------------------------------------------1---0-----------------------| 
E|------------------------------------------------------------------------------------------------| 

2:15 

G|3-------------------2---------------------------------------------------------------------------| 
D|------------------------5-------------------5---------------------------3-------------------3---| 
A|------------------------------------------------3-------------------3---------------------------| 
E|------------------------------------------------------------------------------------------------| 

G|--------------------------------------------------------------------------------------------------------| 
D|5-------------------5-----------------------------------------------------------------------------------| 
A|------------------------3-------------------------------------------------------------------------------| 
E|--------------------------------------------------------------------------------------------------------| 

G|------------------------------------------------------------------------------------------------| 
D|3-----------------------------------------------------------------------------------------------| 
A|------------------------1---------------------------0-----------1---------------3---------------| 
E|------------------------------------------------------------------------------------------------| 

G|--------------------| 
D|----------------3---| 
A|3-------------------| 
E|--------------------| 
	  

Search Paypal
auto scroll beats size up size down change color hide chords drawings
tab show chords e-chords YouTube Clip e-chords hide all tabs e-chords go to top tab