Brenda Lee

home > Brenda Lee

The Angel And The Little Blue Bell Bass Tab

Brenda Lee

Difficulty: nolevelnolevel

by carlluz

tuner correct add songbook print version text version save to e-mail
chordsukulelecavacokeyboardtabbassdrumsharmonicsflute Guitar Pro
chords

The Angel And The Little Blue Bell

  		
Intro 
G|-----------------------------| 
D|------------------------0--3-| 
A|----------1-------1---1------| 
E|--------------1--------------| 

verse 1: "At Christmas time in the steeple high..." 
G|-----------------------------------------------------------------------------------------------------3--| 
D|---------0---1---3----------------0--1---1-------3-----------3------0--1---1-----------3---3------3-----| 
A|-1---3-------------------1---1-3-------------1-------3---3-------3-------------1---1-----------1--------| 
E|---------------------1----------------------------------------------------------------------------------| 
"No matter hard he try and try..." 
G|----------------------------------------------------------------------------------------------| 
D|---------0---1-------3-------3-----3-------3---3----3--------------------------3---------0--3-| 
A|-1---3-----------1-------1------1------3---------3-----1-------------------1-------1---1------| 
E|------------------------------------------------------------------1---------------------------| 

verse 2: "All the other bells in the steeple high..." 
G|-----------------------------------------------------------------------------------------------------3--| 
D|---------0---1---3----------------0--1---1-------3-----------3------0--1---1-----------3---3------3-----| 
A|-1---3-------------------1---1-3-------------1-------3---3-------3-------------1---1-----------1--------| 
E|---------------------1----------------------------------------------------------------------------------| 
"For like I said inspite of all..." 
G|----------------------------------------------------------------------------------------------| 
D|---------0---1-------3-------3-----3-------3---3----3--------------------------3---------0--3-| 
A|-1---3-----------1-------1------1------3---------3-----1-------------------1-------1---1------| 
E|------------------------------------------------------------------1---------------------------| 

verse 3: "All the other bells in the steeple high..." 
G|-----------------------------------------------------------------------------------------------------3--| 
D|---------0---1---3----------------0--1---1-------3-----------3------0--1---1-----------3---3------3-----| 
A|-1---3-------------------1---1-3-------------1-------3---3-------3-------------1---1-----------1--------| 
E|---------------------1----------------------------------------------------------------------------------| 

"with the richest tone 
to whole and whole" 

"Proud little thing, just hear him ring ..." 
G|---------------------------------------------------------------------------------------| 
D------3-------3-----3-------3---3----3------3-------0--3------3---------0-3-------3-----| 
A|-1-------1------1------3---------3-----1-------1---------1-------1---3-------1-------1-| 
E|---------------------------------------------------------------------------------------| 
	  

Search Paypal
auto scroll beats size up size down change color hide chords drawings
tab show chords e-chords YouTube Clip e-chords hide all tabs e-chords go to top tab