Bon Jovi

home > Bon Jovi

I will be there for you Bass Tab

Bon Jovi

Difficulty: ExpertExpert

by europeu

tuner correct add songbook print version text version save to e-mail
chordsukulelecavacokeyboardtabbassdrumsharmonicsflute Guitar Pro
chords

I will be there for you

  		Verse: 
 
E------------------------------------------| 
A------------------------------------------| 
D--3-3-3-----------------------------------| 
G--------0-3-3-3---------------------------| 
 
 
Chorus: 
 
E-------------------------------------------------------------| 
A-------4-6-6h7-------1-2-2h4------------------0-3-/12-3-5----| 
D---5-5----------2-2-----------0-3-3-3---0-5-5-------------3--| 
G-------------------------------------------------------------| 
 
 
SOLO: DO Chorus PATTERN 
 
 

	  

Search Paypal
auto scroll beats size up size down change color hide chords drawings
tab show chords e-chords YouTube Clip e-chords hide all tabs e-chords go to top tab