Blink 182

home > Blink 182

Adam's Song Bass Tab

Blink 182

Difficulty: ExpertExpert

by Cinho+Punk+182

tuner correct add songbook print version text version save to e-mail
chordsukulelecavacokeyboardtabbassdrumsharmonicsflute Guitar Pro
chords

Adam's Song

Year: 1999 - Album: Enema of the State

(Mar Hoppus/ Tom DeLonge)

  		Verse 
g-------------------------------------| 
d-------------------------------------| 
a-33333333----------00000000----------| 
e----------11111111----------11111111-| 
 
Chorus Riff 1 (I never conquered...) 
g-------------------------------------| 
d-------------------------------------| 
a-33333333-55555555-------------------| 
e-------------------55555555-11111111-| 
 
Chorus Riff 2 
g-------------------------------------| 
d-------------------------------------| 
a-33333333-55555555-88888888----------| 
e----------------------------11111111-| 
 
Bridge Riff 1 (repeat bridge 3x) 
g---------------5---5--5---7---7--7---5---5--5---------------5---5--5----7---7--7-| 
d.---5---5--5-33--33--3--55--55--5--33--33--3---5---5--5---33--33--3---55--55--5--| 
a.-33--33--3----------------------------------33--33--3---------------------------| 
e---------------------------------------------------------------------------------| 
 
g---9---5-| 
d-77--33--| 
a---------| 
e---------| 
 
By: [email protected] 

	  

Search Paypal
auto scroll beats size up size down change color hide chords drawings
tab show chords e-chords YouTube Clip e-chords hide all tabs e-chords go to top tab