Blink 182

home > Blink 182

Adam's Song Tab

Blink 182

Difficulty: BeginnerBeginner

by vejota

tuner correct add songbook print version text version save to e-mail
chordsukulelecavacokeyboardtabbassdrumsharmonicsflute Guitar Pro
chords

Adam's Song

Year: 1999 - Album: Enema of the State

(Mar Hoppus/ Tom DeLonge)

  		
Intro and verse: 

Guitar 1: 
d|-----------------------------------------------------| 
A|-----------------------------------------------------| 
F|-----------------------------------------------------| 
C|----4-0---4-0----4-0---4-0----4-0---4-0----4-0---4-0-| 
G|--2-----2------0-----0-------------------------------| 
D|----------------------------3-----3------0-----3-----| (2x) 

Guitar2: 

d|-------------------------------------------------------------------| 
A|-------------------------------------------------------------------| 
F|-------------------------------------------------------------------| 
C|-------------------------------------------------------------------| 
G|--5-5-5-5-5-5-5-5-----------------2-2-2-2-2-2-2-2------------------| 
D|------------------3-3-3-3-3-3-3-3-----------------3-3-3-3-3-3-3-3--| (2x) 

Pre-Chorus: 

Guitar 1: 

d|------------------------------------------------------------------| 
A|------------------------------------------------------------------| 
F|--7-7-7-7-7-7-7-7-9-9-9-9-9-9-9-9-4-4-4-4-4-4-4-4-----------------| 
C|--------------------------------------------------5-5-5-5-5-5-5-5-| 
G|--5-5-5-5-5-5-5-5-7-7-7-7-7-7-7-7-2-2-2-2-2-2-2-2-----------------| 
D|--------------------------------------------------3-3-3-3-3-3-3-3-| (2x) 

Guitar 2: 

d|--------------------------------------------------| 
A|--------------------------------------------------| 
F|-11-11-11-11-11-11-11-11-12-12-12-12-12-12-12-12--| 
C|--------------------------------------------------| 
G|-9--9--9--9--9--9--9--9--10-10-10-10-10-10-10-10--| 
D|--------------------------------------------------| 

Chorus: D5/A E5/B B5/F# G5 


Pos-Chorus: 

d|-----------------| 
A|-----------------| 
F|-----0-----0-----| 
C|---4-----4-----4-| 
G|-5-----5-----5---| 
D|-----------------| (4x) 

d|-------------------------------| 
A|-----3-----3-----3-----3-----3-| 
F|---2-----2-----2-----2-----2---| 
C|-0-----0-----0-----0-----0-----| 
G|-------------------------------| 
D|-------------------------------| 

	  

Full key step upFull key step up
Half key step upHalf key step up
Half key step downHalf key step down
Full key step downFull key step down
Search Paypal
auto scroll beats size up size down change color hide chords drawings
tab show chords e-chords YouTube Clip e-chords hide all tabs e-chords go to top tab