Black Sabbath

home > Black Sabbath

Iron Man Bass Tab

Black Sabbath

Difficulty: BeginnerBeginner

by eduardo%5Flyvio

tuner correct add songbook print version text version save to e-mail
chordsukulelecavacokeyboardtabbassdrummharmonicsflute Guitar Pro
chords

Iron Man

Year: 1989 - Album: Paranoid

	  Intro/Main Riff: 
G------------------------------------------------------------- 
D------------------5p4--5p4--5p4------------------------------ 
A-------5--5h7--7-----------------5--5h7--7------------------- 
E----7-------------------------------------------------------- 
 
Variant:                               * 
G---------------------------------------------------------------------- 
D-----------------------------7--8--9--11--9--------------------------- 
A-----------------7--7--8--9------------------11--10--9--7------------- 
E----7--7--7--10--------------------------------------------9--7h9--7h9 
*At this point the song shifts to double time 
 
Fill 1 (Nobody wants him...): 
G----------9--7-----9--7------------------------------------------- 
D-------9--------9--------9--7--5-------4h5--4--------------------- 
A----7-----------------------------4h5----------5--4--------------- 
E-----------------------------------------------------5------------ 
This is pretty fast... 
 
1st Guitar Solo: 
G------------------------------------------------------------------ 
D------------------------------------------------------------------ 
A------------------------------------------------------------------ 
E----9--9--9--9--9--9--7--8--9------------------------------------- 
-Play this a few times, then move up a tone (to D# on the 11th fret) and repeat. 
 
Pre-Outro: 
G---------------------------------------------------------------- 
D---------------------------------------------------------------- 
A----------5----------------------------------------------------- 
E----7--7-----7--6--5--5--5--0--4--5--5--6----------------------- 
 
2nd Guitar Solo/Outro (Fast): 
G---------------------------------------------------------------------------- 
D---------------------------------------------------------------------------- 
A--7-7-7-7-7-7-7-7-7-7-5h7-5-5-5-5-5-5-5-5-5-5-5h3-3-3-3-3-3-3-3-3-3-3-3h2-2- 
E---------------------------------------------------------------------------- 
 
G-------------------- 
D-------------------- 
A--2-2-2-2-2-2-2-2-2- 
E-------------------- 
	  

there isn't a video lesson for this song

request
Full key step upFull key step up
Half key step upHalf key step up
Half key step downHalf key step down
Full key step downFull key step down
Search
auto scroll beats size up size down change color hide chords drawings
tab show chords e-chords YouTube Clip e-chords hide all tabs e-chords go to top tab