Angels & Airwaves

Do It For Me Now

Angels & Airwaves

bass

by  MATEUSVIEGAS

save to print version add songbook text version e-mail correct tuner
chordsukulelecavacokeyboardtabbassdrumsharmonicaflute Guitar Pro
close

there isn't a video lesson for this song

chords

Do It For Me Now

	  		  g|--------------------------------------|| intro 
  d|------------4/3-0(x20)----------------|| on the slides dont pluck the 3. 
  a|-0(x20)---------------4/3-0(x20)------|| 
  e|--------2(x20)------------------------|| 

  g|------------------------------------------------|| Chorus 
  d|--------4/3-0(x20)------------------------------|| 
  a|------------------4/3-0(x20)------------------- || 
  e|-2(x20)---------------------8/4-4(x20)----------|| 

  g|----------------------|| interlude 
  d|----------------------|| 
  a|----------------------|| 
  e|-5(x20)-7(x4)-10(x20)-|| 
ORDER:PLAY INTRO UNTIL SINGING STARTS, THEN PLAY THE Chorus UNTIL THE "AND I DONT KNOW  
WHICH THE INTERLUDE SHOULD BE PLAYED)THEN REAPEAT AS NEEDED WITHOUT INTRO, AND END WITH  
INTERLUDE. 

srry if its to complecated. 


		  

See also:

bass Guns N' Roses - Civil War bass Kiss - Black Diamond bass Guns N' Roses - Sweet Child O' Mine bass Guns N' Roses - Coma bass Guns N' Roses - Sweet Child O' Mine (ver. 2) bass Counting Crows - Mr Jones
e-chords

Other versions:

bass Angels & Airwaves - Do It For Me Now
auto scroll beats size up size down change color hide chords drawings
tab show chords e-chords YouTube Clip e-chords hide all tabs e-chords go to top tab

share