Air

Alone In Kyoto

Air

bass

by  HUGO_RODRIGUES

save to print version add songbook text version e-mail correct tuner
chordsukulelecavacokeyboardtabbassdrumsharmonicaflute Guitar Pro
close

there isn't a video lesson for this song

chords

Alone In Kyoto

Year: 2004 - Album: Talkie Walkie

	  		
Intro 
G|-----| 
D|-----| 
A|-----| 
E|-15\-| 

Verse 
G|-------------------------------------------------------------------| 
D|-----------10---12~--------10--12-----------10---12~--------10--12-| 
A|-----10-12-----------10-12------------10-12-----------10-12--------| 
E|-10~------------------------------10~------------------------------| 

Chorus 
G|------------------------------------| 
D|------------------------------------| 
A|------------------------------------| 
E|-6~---8~---10~---3~---6~---8~---10~-| 

G|-----------------------------------| 
D|-----------------------------------| 
A|-----------------------------------| 
E|-6~---8~---10~---3~---6~---8~---5~-| 

Verse 
G|-------------------------------------------------------------------| 
D|-----------10---12~--------10--12-----------10---12~--------10--12-| 
A|-----10-12-----------10-12------------10-12-----------10-12--------| 
E|-10~------------------------------10~------------------------------| 

Chorus 
G|------------------------------------| 
D|------------------------------------| 
A|------------------------------------| 
E|-6~---8~---10~---3~---6~---8~---10~-| 

G|-----------------------------------| 
D|-----------------------------------| 
A|-----------------------------------| 
E|-6~---8~---10~---3~---6~---8~---5~-| 

Outro 
G|-----------------------------------------------------------| 
D|-----------------------------------------------------------| 
A|-6~-----------------------6~---4~---6~---4~---6~---4~---5~-| 
E|------4~---6~---4~---3~------------------------------------| 

************************************ 
| /   Slide up 
| \   Slide down 
| ~   Vibrato 
| h   Hammer-on 
| p   Pull-off 
************************************ 
		  

See also:

bass Flying Lotus - Dance Of The Pseudo Nymph bass Massive Attack - Paradise Circus bass Buckethead - For Mom bass Air - Alone In Kyoto bass Empire of the sun - Way To Go
e-chords

Other versions:

bass Air - Alone In Kyoto
auto scroll beats size up size down change color hide chords drawings
tab show chords e-chords YouTube Clip e-chords hide all tabs e-chords go to top tab

share