Empire of the sun

Way To Go

Empire of the sun

bass

by  ADALGOMES

save to print version add songbook text version e-mail correct tuner
chordsukulelecavacokeyboardtabbassdrumsharmonicaflute Guitar Pro
close

there isn't a video lesson for this song

chords

Way To Go

	  		Verse 

G|---------------------------------------------------------------------------| 
D|---------------------------------------------------------------------------| 
A|-2-2--2-2-2--2-2-2--2-2-2--2-2-2--2-2-2--2-2-2--2-2-2--2-------------------| 
E|---------------------------------------------------------------------------| 

G|---------------------------------------------------------------------------| 
D|---------------------------------------------------------------------------| 
A|-------------------------------------------------------0-------------------| 
E|-3-3--3-3-3--3-3-3--3-3-3--3-3-3--3-3-3--3-3-3--3-3-3----------------------| 


Pre-Chorus/Chorus 

G|---------------------------------------------------------------------------| 
D|---------------0-0--0-0-0--0-----------------------------------------------| x4 
A|-2-2--2-2-2--2-----------------------------------------0-------------------|  
E|-----------------------------3-3--3-3-3--3-3-3--3-3-3----------------------| 


Verse 

G|---------------------------------------------------------------------------| 
D|---------------------------------------------------------------------------| 
A|-2-2--2-2-2--2-2-2--2-2-2--2-2-2--2-2-2--2-2-2--2-2-2--2-------------------| 
E|---------------------------------------------------------------------------| 

G|---------------------------------------------------------------------------| 
D|---------------------------------------------------------------------------| 
A|-------------------------------------------------------0-------------------| 
E|-3-3--3-3-3--3-3-3--3-3-3--3-3-3--3-3-3--3-3-3--3-3-3----------------------| 


Pre-Chorus/Chorus 

G|---------------------------------------------------------------------------| 
D|---------------0-0--0-0-0--0-----------------------------------------------| x6 
A|-2-2--2-2-2--2-----------------------------------------0-------------------|  
E|-----------------------------3-3--3-3-3--3-3-3--3-3-3----------------------| 
  

Bridge 

G|---------------------------------------------------------------------------| 
D|-0-0--0-0-0--0-0-0--0-0-0--0-----------------------------------------------| 
A|---------------------------------------------------------------------------| 
E|-----------------------------3-3--3-3-3--3-3-3--3-3-3--3-------------------| 

G|---------------------------------------------------------------------------| 
D|-0-0--0-0-0--0-0-0-----------5-5--5-5-5--5-5-5--5-5-5--5-------------------| 
A|--------------------4-4-4--4-----------------------------------------------| 
E|---------------------------------------------------------------------------| 

G|---------------------------------------------------------------------------| 
D|-0-0--0-0-0--0-0-0--0-0-0--0-5-5--5-5-5--5-5-5--5-5------------------------| 
A|----------------------------------------------------12\--------------------| 
E|---------------------------------------------------------------------------| 

G|---------------------------------------------------------------------------| 
D|-0-0--0-0-0--0-0-0--0------------------------------------------------------| 
A|----------------------4-4--4-----------------------------------------------| 
E|---------------------------------------------------------------------------| 


Pre-Chorus/Chorus 

G|---------------------------------------------------------------------------| 
D|---------------0-0--0-0-0--0-----------------------------------------------| x4 
A|-2-2--2-2-2--2-----------------------------------------0-------------------|  
E|-----------------------------3-3--3-3-3--3-3-3--3-3-3----------------------| 



************************************ 

| \  Slide down 

************************************ 
		  

See also:

bass Buckethead - For Mom bass Massive Attack - Paradise Circus bass Air - Alone In Kyoto bass Flying Lotus - Dance Of The Pseudo Nymph bass Empire of the sun - Way To Go
e-chords

Other versions:

bass Empire of the sun - Way To Go
auto scroll beats size up size down change color hide chords drawings
tab show chords e-chords YouTube Clip e-chords hide all tabs e-chords go to top tab

share