Aerosmith

home > Aerosmith

Falling In Love Is Hard On The Knees Bass Tab

Aerosmith

Difficulty: nolevelnolevel

by alyslima

tuner correct add songbook print version text version save to e-mail
chordsukulelecavacokeyboardtabbassdrumsharmonicsflute Guitar Pro
chords

Falling In Love Is Hard On The Knees

  		
Intro 

G|-----------------|-----------------| 
D|-----------------|-----------------| 
A|-----------------|-----------------| 
E|-1-3-3-1-3-3-1-3-|-1-3-3-1-3-3-1-3-| 


Chorus 

"You think you're in love..."  
G|--------------|--------------|--------------|--------------|--------------|--------------| 
D|--------------|--------------|--------------|--------------|--------------|--------------| 
A|-5-5-5-1--1-1-|-3-3-3-5--5-5-|-5-5-5-1--1-1-|-3-3-3-5--5-5-|-5-5-5-1--1-1-|-3-3-3-5--5-5-| 
E|--------------|--------------|--------------|--------------|--------------|--------------| 

G|--------------|--------------|-----------------|-----------------| 
D|--------------|--------------|-----------------|-----------------| 
A|-5-5-5-1--1-1-|-3-3-3--------|-----------------|-------------3-5-| 
E|--------------|-------3---3--|-1-3-3-1-3-3-1-3-|-1-3-3-1-3-3-----| 


Verse 

"We was making love..." 
G|--------------|----------------|----------------|--------------| 
D|--------------|----------------|----------------|--------------| 
A|--------------|----------------|----------------|--------------| 
E|-3-----8----8-|-6-----11----11-|-6-----11----11-|-8-----3----3-| 

G|--------------|----------------|----------------|--------------| 
D|--------------|----------------|----------------|--------------| 
A|--------------|----------------|----------------|--------------| 
E|-3-----8----8-|-6-----11----11-|-6-----11----11-|-8-----3----3-| 

G|-----------------| 
D|-----------------| 
A|-----------------| 
E|-1-3-3-1-3-3-1-3-| 


Chorus 

"There ain't gonna be... " 
G|--------------|--------------|--------------|--------------|-----------------|--------------| 
D|--------------|--------------|--------------|--------------|-----5-7-8--7--5-|--------------| 
A|-5-5-5-1--1-1-|-3-3-3-5--5-5-|-5-5-5-1--1-1-|-3-3-3-5--5-5-|-4-5-------------|-3-3-3-5--5-5-| 
E|--------------|--------------|--------------|--------------|-----------------|--------------| 

G|--------------|--------------|-----------------|-----------------| 
D|--------------|--------------|-----------------|-----------------| 
A|-5-5-5-1--1-1-|-3-3-3--------|-----------------|-------------3-5-| 
E|--------------|-------3---3--|-1-3-3-1-3-3-1-3-|-1-3-3-1-3-3-----| 


Verse 

G|--------------|----------------|----------------|--------------| 
D|--------------|----------------|----------------|--------------| 
A|--------------|----------------|----------------|--------------| 
E|-3-----8----8-|-6-----11----11-|-6-----11----11-|-8-----3----3-| 

G|--------------|----------------|----------------|-----------------| 
D|--------------|----------------|----------------|-----------------| 
A|--------------|----------------|----------------|-----------------| 
E|-3-----8----8-|-6-----11----11-|-6-----11----11-|-1-3-3-1-3-3-1-3-| 


Chorus 

G|--------------|--------------|--------------|---------7-7-7---|-----------------|--------------| 
D|--------------|--------------|--------------|---------------7-|-----5-7-8--7--5-|--------------| 
A|-5-5-5-1--1-1-|-3-3-3-5--5-5-|-5-5-5-1--1-1-|-3-3-3-5---------|-4-5-------------|--3----5--5-5-| 
E|--------------|--------------|--------------|-----------------|-----------------|--------------| 

G|--------------|--------------|-------------------|-----------------| 
D|--------------|--------------|-------------------|-----------------| 
A|-5-5-5-1--1-1-|-3-3-3--------|-------------------|-----------------| 
E|--------------|-------3---3--|-1-3-3-2-4-4-3-5-5-|-4-6-6-5-7-7-6---| 


Bridge 

"What are you looking for" 
G|----------------------|------------------------|------------------------|----------------| 
D|-10-10-10-10-10-10-10-|-5/10-10-10-10-10-10-10-|-5/10-10-10-10-10-10-10-|----------------| 
A|----------------------|------------------------|------------------------|----------------| 
E|----------------------|------------------------|------------------------|-0---1---2---3--| 

                                                                         "own it own it own it" 
G|------------------|-----------------|-----------------|-----------------|------------------| 
D|------------------|-----------------|-----------------|-----------------|------------------| 
A|------------------|-----------------|-----------------|-----------------|------------------| 
E|-10-8-8-8-8-8-8-8-|-7-7-7-7-7-7-7-7-|-6-6-6-6-6-6-6-6-|-5-5-5-5-5-5-5-5-|------------------| 


Solo 

2:02 
G|--------------|--------------|--------------|--------------|--------------|--------------| 
D|--------------|--------------|--------------|--------------|--------------|--------------| 
A|-5-5-5-1--1-1-|-3-3-3-5--5-5-|-5-5-5-1--1-1-|-3-3-3-5--5-5-|-5-5-5-1--1-1-|-3-3-3-5--5-5-| 
E|--------------|--------------|--------------|--------------|--------------|--------------| 

G|--------------|--------------|-----------------|-----------------| 
D|--------------|--------------|-----------------|-----------------| 
A|-5-5-5-1--1-1-|-3-3-3--------|-----------------|-------------3-5-| 
E|--------------|-------3---3--|-1-3-3-1-3-3-1-3-|-1-3-3-1-3-3-----| 


Verse 

G|--------------|----------------|----------------|--------------| 
D|--------------|----------------|----------------|--------------| 
A|--------------|----------------|----------------|--------------| 
E|-3-----8----8-|-6-----11----11-|-6-----11----11-|-8-----3----3-| 

G|--------------|----------------|----------------|-----------------| 
D|--------------|----------------|----------------|-----------------| 
A|--------------|----------------|----------------|-----------------| 
E|-3-----8----8-|-6-----11----11-|-6-----11----11-|-1-3-3-1-3-3-1-3-| 


Chorus 

G|--------------|--------------|--------------|--------------|--------------|--------------| 
D|--------------|--------------|--------------|--------------|--------------|--------------| 
A|-5-5-5-1--1-1-|-3-3-3-5--5-5-|-5-5-5-1--1-1-|-3-3-3-5--5-5-|-5-5-5-1--1-1-|-3-3-3-5--5-5-| 
E|--------------|--------------|--------------|--------------|--------------|--------------| 

G|--------------|--------------|--------------|--------------|--------------|--------------| 
D|--------------|--------------|--------------|--------------|--------------|--------------| 
A|-5-5-5-1--1-1-|-3-3-3-5--5-5-|-5-5-5-1--1-1-|-3-3-3-5--5-5-|-5-5-5-1--1-1-|-3-3-3-5--5-5-| 
E|--------------|--------------|--------------|--------------|--------------|--------------| 

G|--------------|--------------|--------------|--------------|-------------------|-----------------| 
D|--------------|--------------|--------------|--------------|-------------------|-----------------| 
A|-5-5-5-1--1-1-|-3-3-3-5--5-5-|-5-5-5-1--1-1-|-3-3-3--------|-------------------|-----------------| 
E|--------------|--------------|--------------|-------3---3--|-1-3-3-2-4-4-3-5-5-|-4-6-6-5-7-7-6---| 


/: slide down 
	  

Search Paypal
auto scroll beats size up size down change color hide chords drawings
tab show chords e-chords YouTube Clip e-chords hide all tabs e-chords go to top tab