Aerosmith

home > Aerosmith

Dude Looks Like A Lady Bass Tab

Aerosmith

Difficulty: EasyEasy

tuner correct add songbook print version text version save to e-mail
chordsukulelecavacokeyboardtabbassdrumsharmonicsflute Guitar Pro
chords

Dude Looks Like A Lady

  		             3x
G|-------------|--------------------------------------------|
D|o-----------o|--------------------------12-12-12-12-14----|
A|o-----------o|-0-\-12-12-12-12-12-12-12----------------10-|
E|--0-\-5-/-0--|--------------------------------------------|

Verses / Chorus / Solo (choose one of the three versions for variations)
G|---------------------------|
D|-----------------------2---|
A|---------------5-5-5-5-----|
E|-5-5-5-5-2-3-4-----------3-|

G|-------------------------------|
D|-----------------------2-------|
A|---------------5-5-5-5---------|
E|-5-5-5-5-2-3-4-----------2-3-4-|

G|-------------------------------------|
D|-------------------------------------|
A|---------------5-5-5-5-\-10-10-10-10-|
E|-5-5-5-5-2-3-4-5---------------------|

Baby let me follow...       3X
G|----------------------------|-----------------------------------------------|
D|o--------------------------o|-----------------------------------------------|
A|o--------------------------o|-----------------------------------3-3-3-3-5-5-|
E|-5--3-3-1-1--0-0-0-0-0-0-0--|-0-0-0-0-0-0-0-0-4-4-4-4-6-6-6-6-6-------------|

What a funky lady...           3x
G|-------------------------------|------------------|
D|o-----------------------------o|------------------|
A|o-7-7-7-5-5-7-----------------o|-7-7-7-5-5-7-/----|
E|-------------0-0-0-0-0-0-0-0---|---------------3~-|
	  

Search Paypal
auto scroll beats size up size down change color hide chords drawings
tab show chords e-chords YouTube Clip e-chords hide all tabs e-chords go to top tab