save to print version add songbook text version e-mail correct tuner
chordsukulelecavacokeyboardtabbassdrumsharmonicaflute Guitar Pro
close

there isn't a video lesson for this song

chords

Alive

	  		
(Intro) 
G|---------------------------------------------------------------| 
D|---------------------------------------------------------------| 
A|--------------------------------------------2222222-0000000----| 
E|-233-3-3-3-3-3-233-3-3-3-3-3-233-3-3-3-3-3------------------3~-|  

(Verso) 
G|----------------------------------| 
D|----------------------------------| (2x) 
A|-22222222-444-555-----------------| 
E|------------------333333333333333-|  

G|----------------------------------------------------------------| 
D|-----------------5555555555555555-------------------------------| 
A|-2222222-444-555------------------2222222-444-555-------------- | 
E|--------------------------------------------------3333333333333-| 

(pré-refrão) 
G|------------------| 
D|------------------| (2x) 
A|------------------| 
E|000-222-333333333-| 

(refrão) 
G|------------------------------------------------------------| 
D|------------------------------------------------------------| 
A|--------------------------------------------2222222-0000000-| 
E|-233-3-3-3-3-3-233-3-3-3-3-3-233-3-3-3-3-3------------------|  

G|---------------------------------------------------------------| 
D|---------------------------------------------------------------| 
A|--------------------------------------------2222222-0000000----| 
E|-233-3-3-3-3-3-233-3-3-3-3-3-233-3-3-3-3-3------------------3~-|  

(Verso) 

(pré-refrão) 

(refrão) 

(ponte) 
                            (2x)                          (2x) 
G|------------------------------|-----------------------------|-----| 
D|------------------------------|-----------------------------|-----| 
A|-555555-777777----------------|-----------------------------|-----| 
E|---------------3333333333333--|555555-00000000000-333333333-|--0~-| 

(refrão) 

G|------------------------------------------------------------| 
D|------------------------------------------------------------| (2x) 
A|--------------------------------------------2222222-0000000-| 
E|-233-3-3-3-3-3-233-3-3-3-3-3-233-3-3-3-3-3------------------|   

G|---------------------------------------------------------------| 
D|---------------------------------------------------------------| 
A|--------------------------------------------2222222-0000000----| 
E|-233-3-3-3-3-3-233-3-3-3-3-3-233-3-3-3-3-3------------------3~-| 
		  

auto scroll beats size up size down change color hide chords drawings
tab show chords e-chords YouTube Clip e-chords hide all tabs e-chords go to top tab

share