Pearl Jam

home > Pearl Jam

Alive Bass Tab

Pearl Jam

Difficulty: BeginnerBeginner

by Apocalyptica

tuner correct add songbook print version text version save to e-mail
chordsukulelecavacokeyboardtabbassdrummharmonicsflute Guitar Pro
chords

Alive

Key:  A More
Alive Key EE
Alive Key FF
Alive Key F#F#
Alive Key GG(one step down)
Alive Key G#G#(half step down)
Alive Key AA(original key)
Alive Key A#A#(half step up)
Alive Key BB(one step up)
Alive Key CC
Alive Key C#C#
Alive Key DD
Alive Key D#D#
  		Transcribed by: Avi 
Email: [email protected] 
 
-|------|--------------|- 
-|------|--------------|- 
-|--12--|-12-12-12-12/-|- 
-|------|--------------|- 
 Intro (0:07) 
 
-|--------------|- 
-|--------------|- 
-|-8-8-8-8-10---|- 
-|------------8-|- 
 Transition (verse to Chorus)  
 
-|-----------------|------------------|- 
-|-----------------|------------------|- 
-|-0-0-0h7h10b-----|-0-0-0h10h12b-----|- 
-|-----------------|------------------|- 
 Verse 
 
-|-----------------|------------|- 
-|-----------------|-------5-7/-|- 
-|-0-0-0h7h10bend/-|---5-7------|- 
-|-----------------|-5----------|- 
 Verse is sometimes 
 
-|------------|-------|------|- 
-|------------|-------|------|- 
-|------------|-------|------|- 
-|-/12-0-3----|-10----|-5----|- 
 Chorus 
 
-|-------------|-------|-------|- 
-|-----------5-|-------|-----7-|- 
-|-------------|-------|-------|- 
-|-/12-0-3-3---|-10...-|-5-5---|- 
 Chorus is sometimes 
 
-|----------------------|- 
-|----------------------|- 
-|---------6-6-6-6-7-9/-|- 
-|-7-7-7-7--------------|- 
 Chorus to Verse 
 
-|---------------------|-----|- 
-|---------------------|-----|- 
-|---------6-6-6-6-7-9-|--9--|- 
-|-7-7-7-7-------------|-----|- 
 Bridge 
 
-|-------|-------|-------|-------|- 
-|-------|-------|-------|-------|- 
-|-4-2-5-|-4-7-5-|-6-4-7-|-6-9-7-|- 
-|-------|-------|-------|-------|- 
               x2              x2 
 
-|-------------------------------------------|- 
-|-------------------------------------------|- 
-|---------------------------5555-55---------|- 
-|-12-12-12-12--12-12\3333-33--------5555-55-|- 
 Outro (4:03)                             x14 
 
-|-------------------------------------21---------------------|- 
-|----------------17----17-19-19b-19b-----19/17---------------|- 
-|-17h19-17-17h19----19-------------------------19-19pull out-|- 
-|------------------------------------------------------------|- 
 End  
 
 
 

	  

Search Paypal
auto scroll beats size up size down change color hide chords drawings
tab show chords e-chords YouTube Clip e-chords hide all tabs e-chords go to top tab