3 Doors Down

Here Without You (vers. 2)

3 Doors Down

bass Expert expert

by  MARCOFESTA

save to print version add songbook text version e-mail correct tuner
chordsukulelecavacokeyboardtabbassdrumsharmonicaflute Guitar Pro
close

there isn't a video lesson for this song

chords

Here Without You (vers. 2)

	  		Here without you - 3 doors down 
 
Refrão: 
G|----------------------| 
D|----------------------| 
A|--4--------1----------| 
E|------4--------2---4--| 
 
 
		verse 1 
G|-----------------------------------------| 
D|-----------------------------------------| 
A|--1---1-1-------------1---1-1------------| 
E|------------4---4-4-------------2-2-1-4--| 
		Verse 
G|--------------------------------------------| 
D|--------------------------------------------| 
A|--1---1-1----------------1---1-1------------| 
E|------------4-2--4-4-1-4-----------2-2-1-4--| 
		Chorus 2 
G|--------------------------------| 
D|--------------------------------| 
A|--4--4/----------1---1----------| 
E|---------4---1-4-------2-2-1-4--| 
		bridge 
G|--------------------------------------------| 
D|--------------------------------------------| 
A|-1-1-1-1-1--4-4-4-4-4-----------------------| 
E|----------------------4-4-4-4-4--1-1-1-1-1--| 
 
G|------------------------------------------------------| 
D|------------------------------------------------------| 
A|-1-1-1-1-1--4-4-4-4-4---------------------------------| 
E|----------------------4-4-4-4-4--1-1-1-1-1-1-1-1-1-1--| 
		outro 
G|--------------------------------------------------------| 
D|--------------------------------------------------------| 
A|--4-4-4-4-4-4-------------1-1-1-1-1-1----------------1--| 
E|--------------4-4-4-4-4-4-------------2-2-1-4--4-4-4----| 
 
 
Boa sorte! 
 

		  

See also:

bass The Killers - Somebody told me (ver. 2) bass Guns N' Roses - Estranged bass Guns N' Roses - Attitude bass The Offspring - Want You Bad bass Kiss - Beth bass Foo Fighters - Ever Long
e-chords

Other versions:

bass 3 Doors Down - Here Without You (vers. 2)
auto scroll beats size up size down change color hide chords drawings
tab show chords e-chords YouTube Clip e-chords hide all tabs e-chords go to top tab

share