Bob Marley

home > Bob Marley > chords

The Healten Bass Tab

Bob Marley

Difficulty: nolevelnolevel

by ricardonds

tuner correct add songbook print version text version rtf version e-mail
chordsukulelecavacokeyboardtabbassdrumsharmonicsflute Guitar Pro
chords

The Healten

Year: 1977 - Album: Exodus

	  intro 
G----------------------------------------------------- 
D----------------------------------------------------- 
A----------------(9)----------------------3----------- 
E(5)----------7------------(5)----------------(3)----- 
todo o resto... 
G----------------------------------------------------- 
D----------------------------------------------------- 
A-----77777-------9------------77777------3----------- 
E-5-----------7------7------5-----------------333----- 
 
Jah Love protect us 

	  

Request the video "The Healten"  -  Send "The Healten" Ringtone to your Cell

there isn't a video lesson for this song

request
Search
auto scroll beats size up size down change color hide chords drawings
tab show chords e-chords YouTube Clip e-chords hide all tabs e-chords go to top tab