Black Uhuru

home > Black Uhuru

World is africa Bass Tab

Black Uhuru

Difficulty: nolevelnolevel

by MarceloBongoMan

tuner correct add songbook print version text version save to e-mail
chordsukulelecavacokeyboardtabbassdrumsharmonicsflute Guitar Pro
chords

World is africa

  		Black Uhuru  
World Is Africa  
 
Intro  
|---------------|  
|-17/-5-8-7-3-5-|  
|---------------|  
|---------------|  
 
Verse 1  
|---------------|  
|---------------|  
|---------------|  
|-(3)-3-3-3-(3)-|  
 
Verse 2   
|----------|  
|-------3--|  
|-3-5h---5-|  
|----------|  
 
Verse 3  
|-----------------------------|  
|-5-3-5--------5-3-5----------|  
|--------5-3-5----------------|  
|-----------------------3-1-3-|  
 
Verse 4  
|-------------------|  
|-5-3-5-------------|  
|--------5-3-5------|  
|-----------------3-|  
 
Verse 5  
|--------------------|  
|-5-5---5---5---5----|  
|--------------------|  
|------3---3---3---3-|  
 
Switch 1         Switch 2  
 
|------|        |--------|  
|-3-5h-|        |-3-5h-0-|  
|------|        |--------|  
|------|        |--------|  
 
Intro x1 Verse 3 x4 Verse 3 x2 Switch 2 x1  
Verse 1 x11 Verse 1 x18 Switch 1 x1 Verse 1 x10  
Verse 2 x1 Verse 2 x1 Verse 1 x10 Verse 2 x1  
Verse 1 x18 Verse 1 x14 Verse 2 x1 Verse 1 x30  
Verse 2 x1 Verse 2 x1 Verse 1 x14 Verse 2 x1  
Verse 1 x3 Verse 1 x14 Verse 2 x1 Verse 1 x13  
Verse 3 x2 Verse 2 x1 Verse 5 x1  Verse 2 x1  
Verse 1 x10 Verse 1 x14 Verse 1 x9 Verse 1 x4  
Verse 2 x1 Verse 2 x1 Verse 2 x1 Verse 3 (fade)  
Verse 1 x26 Verse 1 x4 Verse 1 x14  
Verse 2 x1 Verse 4 x4  Verse 2 x1  
Verse 1 x7 Verse 1 x16 Verse 3 x4  
 

	  

Search Paypal
auto scroll beats size up size down change color hide chords drawings
tab show chords e-chords YouTube Clip e-chords hide all tabs e-chords go to top tab